PrimaNota.ru - самый крупный в мире бесплатный архив песенных текстов, аккордов, табулатур и нот


Childish Gambino - We Ain't Them - текст песни, таба, видео

Регистрация Запомнить меня
Войти через:  Facebook Google Twitter Vk Yandex Mail.ru

Childish Gambino - We Ain't Them - текст песни, таба, видео

Печатать
Просмотров: 61
-------------------------------------------------------------------------------
                             We Ain't Them - Childish Gambino
-------------------------------------------------------------------------------
Tabbed by: Carter Elliott
E-mail: carterelliott@gmail.com

Tuning: Standard

This song has a basic riff that literally continues throughout the whole song, but it requires some stretchy
fingerwork to pull off (which is why it is labelled as advanced).

Main riff:
e|-------------------------------------------------------------------|
B|-7--7----7--7------7-----7----5------5-----5---5-------------------|
G|-8--8----8--7------7-----7----6------6-----6---6-----5-----7--7----|
D|-9--9----9--9------9-----9----7------7-----7---7-----6-----6--6----|
A|-11-11---11-10--10----10---10----9-9---9-9---9-------7-----7--7----|
E|--------------------------------------------------7-----7--7--7----|

e|-------------------------------------------------------------------|
B|-7--7----7--5-----5-----5---5-----5-----5---5-----------7--7-------|
G|-7--7----7--6-----6-----6---6-----6-----6---6-----5-----8--8-------|
D|-9--9----9----7-7---7-7---7-------7-----7---7-----6-----9--9-------|
A|-10-10---10-------------------9-9---9-9---9-------7----------------|
E|-----------------------------------------------7-----7-----7-------|


-------------------------------------------------------------------------------


Around the 2:13 mark, the riff does this twice:

e|-------------------------------------------------------------------|
B|-7--7----7--5--7--7----7--5--7--7----7--5-5---5--7--7--------------|
G|-7--7----7--6--7--7----7--6--7--7----7--6-6---6--8--8--------------|
D|-9--9----9--7--9--9----9--7--9--9----9--7-7---7--9--9--------------|
A|-10-10---10----10-10---10----10-10---10----------------------------|x2
E|-------------------------------------------------------------------|

And then resumes to the main riff.


-------------------------------------------------------------------------------


************************************

| /   slide up
| \   slide down
| h   hammer-on
| p   pull-off
| ~   vibrato
| +   harmonic
| x   Mute note
| b   Bend
| pb  Pre-bend
| br  Bend release
| pbr Pre-bend release
| brb Bend release bend

************************************
Добавлено: 29.10.2015
Другие материалы по этой песне:
  • Аккорды и текст

Страница создана 10.10.2013
http://primanota.ru/childish-gambino/we-aint-them-chords.htm
Привет, Гость.
Предлагаем пройти революционный курс по гитаре.
Подарок от PrimaNota.Ru, забирай!