PrimaNota.ru - самый крупный в мире бесплатный архив песенных текстов, аккордов, табулатур и нот


Childish Gambino - Got This Money - таба, видео

Регистрация Запомнить меня
Войти через:  Facebook Google Twitter Vk Yandex Mail.ru

Childish Gambino - Got This Money - таба, видео

Печатать
Просмотров: 171
Please tell me if I made any mistakes!

Video of me playing "Got This Money": http://www.youtube.com/watch?v=2PlR-SbJapw

I also did a Frank Ocean- "Done" tab: http://tabs.ultimate-guitar.com/f/frank_ocean/done_tab.htm

Intro
E -------------           \
B --------------           \ 
G -4p2----------     2x     |
D ------2--4----            | 
A -2------------            | 
E --------------            |
                            |    2x
E -------------------       |           
B -------------------       | 
G -------------------       |
D -5\4--------5\4----       | 
A ------0--2-------0-       /
E -3----------3------      / 



Part 1
E ---------------|  
B ---------------|
G -4-------------|   ***** after part 4, when you play part 1 
D -4-(8x)--------|         .... don't play this part only play
A -2-------------|         the one below 
E ---------------|             VVVVVV

E ----------------------------|
B ----------------------------|
G -4--------4--------4--------|
D -4--(8x)--4--(8x)--4--(16x)-|  4x
A -2--------0--------2--------|
E -------------------0--------|
^^^^^^^^^^^^^^^^^^^^^^^^^^
**Part 1 is all straight 1/8th notes.



Part 2
E -2--
B -3--
G -4--  2x
D -4--
A -2--
E ----

E -2-------------|
B -3--1----------|
G -4--2--0-------|
D -4--2--2-(2x)--|   4x
A -2--0--2-------|
E -------0-------|
^^^^^^^^^^^^^^^^^^^^^^^^
Strum pattern 
 1      &       2       &        3        &       4        &
down  miss     down    down     miss    down     down    down up



Part 3 - Riff
E -------5-------2--2-----I--------5-------2h3p2---|
B ----------5--5-------3--I-----------5--5-------3-| 
G -4--4-------------------I-4--4-------------------|   8x
D ------------------------I------------------------|
A ------------------------I------------------------|
E ------------------------I------------------------|
**Think this part as two different sections, it'll be easier to learn


Part 4- Same chords as Part 2 but differnt strum pattern
E -2--
B -3--
G -4--  2x
D -4--
A -2--
E ----

E -2-------------|
B -3--1----------|
G -4--2--0-------|
D -4--2--2-(2x)--|   4x
A -2--0--2-------|
E -------0-------|
^^^^^^^^^^^^^^^^^^^^^^^^
Strum pattern
 1        &      2       &       3      &       4       &
down up  chug   up      chug     up    chug     up    chug

**Chung/palm mute on the down/off beats!



Part 2- 2x
-- don't play the ***** part
-- it's explained above



Part 1- 2x



Bridge
E -2-------------|
B -3--2----------|
G -4--2--0-------|
D -4--2--2-(2x)--|   4x
A -2--0--2-------|
E -------0-------|
** finger plucking- 1/8th notes

for the first two chords (2 4 4 3 2),(0 2 2 0) you pluck the A,D,G,B strings
for the third chord ( 0 2 2 0) you pluck the E,D,G,B strings
--NOTICE THE CHANGE >> A minor to A major!



Part 5
E -2-------------|
B -3--1----------|
G -4--2--0-------|
D -4--2--2-(2x)--|   2x
A -2--0--2-------|
E -------0-------|
^^^^^^^^^^^^^^^^^^^^^^
Strum Pattern
 1       &      2       &       3        &         4       &
down    up    down      up     miss      up      down      up


Outro- play the intro!
**on the second time that you play the intro
start playing this part slowly and hold the last note

E ---------------|                     
B ---------------|         
G ---------------|          
D -5\4-----5\4---|         
A -----0-2-----0-|          
E -3-------3-----|
Добавлено: 28.05.2012
Другие материалы по этой песне:
  • Аккорды и текст

Страница создана 28.05.2012
http://primanota.ru/childish-gambino/got-this-money-chords.htm
Привет, Гость.
Предлагаем пройти революционный курс по гитаре.
Подарок от PrimaNota.Ru, забирай!