PrimaNota.ru - самый крупный в мире бесплатный архив песенных текстов, аккордов, табулатур и нот


Chikita Violenta - Horror Amor - таба, видео

Регистрация Запомнить меня
Войти через:  Facebook Google Twitter Vk Yandex Mail.ru

Chikita Violenta - Horror Amor - таба, видео

Печатать
Просмотров: 109
This is a Great Cover of six Million Dollar Weirdo, Comments JFernandovera@hotmail.com


Intro :  A:577600  (Play With palm mute)

Chords
A  : 577000
G#m: 046600
F#m: 244000
D  : 057700
E  : 022100

Fig 1

A:577000
----------------------------------------------|
-10--12--14---10--12---14-----15---14----12---|
----------------------------------------------|
----------------------------------------------|
----------------------------------------------|
----------------------------------------------|
Fig 2

A:577000
----------------------------------------------|
-10--12--14---10--12---14-----17---15----14---|
----------------------------------------------|
----------------------------------------------|
----------------------------------------------|
----------------------------------------------|
Fig 3

                                        F#m            D
-----------------------------------------------------------|
-10--12--14---10--12---14-----15---14----12-----10--12--5--|
---------------------------------------------11------------|
-----------------------------------------------------------|
-----------------------------------------------------------|
-----------------------------------------------------------|

Y Empieza …

Verso 1

A                             G#m
Me levanto y el anhelo de volverte a encontrar
 A                             G#m
Se convierte en desconsuelo y en insana ansiedad
 A                             G#m
y es que tengo este recuerdo recurrente y circular

 F#m               D
Horror Horror  Amorr


A

Otra vez mire tu rostro
        G#m
Otra vez oí tu voz
 A                          G#m
Sin querer apareciste en otra conversación
 A                          G#m
tu ausencia alimenta mi gradual perturbación

F#m               D
Horror Horror  Amorr


CORO

E        F#m            D
Y es que sin ti nada es igual
          D
pero te tengo que olvidar
E        F#m            D
Y es que sin ti no hay emoción
          D
pero es mejor decir que no

E           F#m
You broke my heart
       D
You drop my soul
             D
and I can't stand it anymore
E         F#M
You're moving on
        D
and I am strong
           D
and I can't stand it anymore

Intro + Riffs


Verso 2
A
He marcado sin quererlo
           G#m
He pensado en tu color
A
Pareciera que te he visto
   G#m
a mi alrededor
 A
Y es que aun te siento cerca
      G#m
pero sin poder hablar


F#m               D
Horror Horror  Amorr

Verso 3

 A
De todo lo que pasamos
       G#m
me quedo con lo mejor
 A
por que hoy ya somos otros
       G#m
y el pasado nos marco
 A
Pero todos mis sentidos
       G#m
Se colapsan al pensar
F#m          D
si quisieras regresar

Coro

E       F#m
Y es que sin ti nada es igual
          D
Pero te tengo que olvidar
E       F#m
Es que sin ti no hay emoción
          D
pero es mejor decir que no

E           F#m
You broke my heart
       D
You drop my soul
             D
and I can't stand it anymore
E         F#m
You're moving on
        D
and I am strong
           D
and I can't stand it anymore
           D                     A
no i can't stand it anymore

Visit www.chikitaviolenta.com

 Enjoy the Life...Enjoy the Music...!!!!!
Добавлено: 18.04.2012
Другие материалы по этой песне:
  • Аккорды и текст

Страница создана 18.04.2012
http://primanota.ru/chikita-violenta/horror-amor-chords.htm
Привет, Гость.
Предлагаем пройти революционный курс по гитаре.
Подарок от PrimaNota.Ru, забирай!