PrimaNota.ru - самый крупный в мире бесплатный архив песенных текстов, аккордов, табулатур и нот


Chieko Kawabe - Sakura Kiss - бас-таба, видео

Регистрация Запомнить меня
Войти через:  Facebook Google Twitter Vk Yandex Mail.ru

Chieko Kawabe - Sakura Kiss - бас-таба, видео

Печатать
Просмотров: 160
-------------------------------------------------------------------------------
			     "Sakura Kiss" - Chieko Kawabe
-------------------------------------------------------------------------------

Tabbed By : FuNKyJrtb
e-mail: james@the-chok.net

Tuning: Standard EADG

For timing purposes, please consult youtube video:
http://www.youtube.com/watch?v=oQuUyLs46pE

{Opening}
G |-------------------------------|--------------------------------|
D |-------------------------------|--------------------------------|
A |5555555500000000--------------5|5555555500000000--------------5\|
E |----------------33333333333353-|----------------33333333333353--|

*rest for opening verse*

G |--|-----------------------------|------------------------------|
D |--|-----------------------------|------------------------------|
A |5/|5555555500000000------------5|5555555500000000--------------|
E |--|--------------33333333333353-|----------------33333333333555|

{Pre-Chorus}
G |-----------------------------------------|
D |-----9----------5----------10-----------7|
A |------9----------5-----------10------5h7-|
E |7-7-7—-7-7\3-3-3—-3-3/8-8-8-—--8-8\5-----|

{Chorus}
G |----|-------------------------------------------------|----------------|
D |----|------------4h5p4---------------------------7----|-------5---5----|
A |12\5|555555555555---------------------------------7---|---5--------5---|
E |----|-----------------333333333333555/7-7777775-5—-575|3-3-3-3-3-3--353|

G |-------------------------------------------------|----------------|
D |------------4h5p4---------------------------7----|-------5---5----|
A |555555555555---------------------------------7---|---5--------5---|
E |-----------------333333333333555/7-7777775-5—-575|3-3-3-3-3-3--353|

G |----------|
D |----------|
A |3-33-----5|
E |----3-3-5-|

{Interlude}
G |---------------------------------|-------------------------------|
D |---------------------------------|-------------------------------|
A |5555555500000000----------------5|5555555500000000--------------5|
E |----------------33333333-3-3-3-5-|----------------33333333333353-|

{Second Verse}
G |-------------------------------|-------------------------------|
D |-------------------------------|-------------------------------|
A |55-5550-00-000----------------5|55-5550-00-000----------------5|
E |--------------3-33-3333-33-535-|--------------3-33-3333-33-535-|

G |------2-22-222-----------------|-------------------------------|
D |00-000---------------------575-|-------------------------------|
A |------------------------------5|55-5550-00-000-----------------|
E |--------------3-33-3333-33-----|--------------3-33-3333-333555/|

{Pre-Chorus}
G |-----------------------------------------|
D |-----9----------5----------10-----------7|
A |------9----------5-----------10------5h7-|
E |7-7-7—-7-7\3-3-3—-3-3/8-8-8-—--8-8\5-----|

{Chorus}
G |----|-------------------------------------------------|----------------|
D |----|------------4h5p4---------------------------7----|-------5---5----|
A |12\5|555555555555---------------------------------7---|---5--------5---|
E |----|-----------------333333333333555/7-7777775-5—-575|3-3-3-3-3-3--353|

G |-------------------------------------------------|----------------|
D |------------4h5p4---------------------------7----|-------5---5----|
A |555555555555---------------------------------7---|---5--------5---|
E |-----------------333333333333555/7-7777775-5—-575|3-3-3-3-3-3--353|

G |-----------|
D |-----------|
A |3-33-----5\|
E |----3-3-5--|

{Bridge}
G |-------------------------------|------------------|
D |4h5p4--------------------------|------------------|
A |-----5-4h5h4----5—5p4----------|----5-5p4p3----5--|
E |------------3--3-----5--5--5-4-|3--3------------5/|

*rest through first part of chorus*

{Chorus}
G |------|-------------------------------------------------|----------------|
D |------|------------4h5p4---------------------------7----|-------5---5----|
A |5/12\5|555555555555---------------------------------7---|---5--------5---|
E |------|-----------------333333333333555/7-7777775-5—-575|3-3-3-3-3-3--353|

G |--------------------------------|
D |-------------4h5p4--------------|
A |3-33-----5-5------5-4-3-33-----5|
E |----3-3-5-----------------3-3-5-|

{Ending}
G |-------------------------------|-----------------------------0-7-|
D |-------------------------------|------------------------------0-0|
A |5555555500000000--------------5|5555555500000000-----------------|
E |----------------33333333333353-|----------------33333333-3-3-----|


| /  slide up
| \  slide down
| h  hammer-on
| p  pull-off
| ~  vibrato
| +  harmonic
| x  Mute note





Добавлено: 28.03.2012
Вам также может быть интересно:
Другие материалы по этой песне:

Страница создана 28.03.2012
http://primanota.ru/chieko-kawabe/sakura-kiss-chords.htm
Привет, Гость.
Предлагаем пройти революционный курс по гитаре.
Подарок от PrimaNota.Ru, забирай!