PrimaNota.ru - самый крупный в мире бесплатный архив песенных текстов, аккордов, табулатур и нот


Chicosci - Breathe Again - таба, видео

Регистрация Запомнить меня
Войти через:  Facebook Google Twitter Vk Yandex Mail.ru

Chicosci - Breathe Again - таба, видео

Печатать
Просмотров: 84
Chicosci - Breathe 

Drop C

* natural harmonic
+ pinch harmonic
/\ slide
p pull-off
h hammer on
x mute
. palm mute
~ let it ring
intro/verse 1( guitar 1)
 e|----------------------|
 b|-------7*--------7*---|
 g|--0----7*---0----7*---|
 d|--0---------0---------|
 a|----------------------|
 D|----------------------|

	(guitar 2)
 e|----10---------10-------|
 b|-------7----------7-8---|
 g|----------7-------------|
 d|------------------------|
 a|------------------------|
 D|------------------------|

chorus (guitar 1) 
 e|--------------------------------------------------------------------------|
 b|--------------------------------------------------------------------------|
 g|--7777777777777777-9999999999999999-111111111111111111111111111111--------|
 d|--5555555555555555-7777777777777777-8-8-8-8-8-8-8-8-8-8-8-8-8-8-8---------|
 a|--5555555555555555-7777777777777777-8-8-8-8-8-8-8-8-8-8-8-8-8-8-8---------|
 D|--5555555555555555-7777777777777777-8-8-8-8-8-8-8-8-8-8-8-8-8-8-8---------|

	(guitar 2)
 e|--------------------------------------------------------------------------|
 b|--------------------------------------------------------------------------|
 g|--7777777777777777-9999999999999999-111111111111111111111111111111--------|
 d|--5555555555555555-7777777777777777-8-8-8-8-8-8-8-8-8-8-8-8-8-8-8---------|
 a|--5555555555555555-7777777777777777-8-8-8-8-8-8-8-8-8-8-8-8-8-8-8---------|
 D|--5555555555555555-7777777777777777-8-8-8-8-8-8-8-8-8-8-8-8-8-8-8---------|

 back to intro
 e|-------------------------------------------|
 b|-------7*--------7*--------7*--------7*----|
 g|--0----7*---0----7*---0----7*---0----7*----|
 d|--0---------0---------0---------0----------|
 a|-------------------------------------------|
 D|-------------------------------------------|

 verse 2

 e|---------------------------------------------------------------------|
 b|---------------------------------------------------------------------|
 g|--7~-------------9~--------------7~------------------9~--------------|
 d|--7~-------------7~--------------7~------------------7~--------------|
 a|--5~-------------7~--------------5~------------------7~--------------|
 D|-----------------7~----------------------------------7~--------------|

chorus (guitar 1) (2x)
 e|--------------------------------------------------------------------------|
 b|--------------------------------------------------------------------------|
 g|--7777777777777777-9999999999999999-111111111111111111111111111111--------|
 d|--5555555555555555-7777777777777777-8-8-8-8-8-8-8-8-8-8-8-8-8-8-8---------|
 a|--5555555555555555-7777777777777777-8-8-8-8-8-8-8-8-8-8-8-8-8-8-8---------|
 D|--5555555555555555-7777777777777777-8-8-8-8-8-8-8-8-8-8-8-8-8-8-8---------|

	(guitar 2)
 e|--------------------------------------------------------------------------|
 b|--------------------------------------------------------------------------|
 g|--7777777777777777-9999999999999999-111111111111111111111111111111--------|
 d|--5555555555555555-7777777777777777-8-8-8-8-8-8-8-8-8-8-8-8-8-8-8---------|
 a|--5555555555555555-7777777777777777-8-8-8-8-8-8-8-8-8-8-8-8-8-8-8---------|
 D|--5555555555555555-7777777777777777-8-8-8-8-8-8-8-8-8-8-8-8-8-8-8---------|


outro

 e|----------------------|
 b|-------7*--------7*---|
 g|--0----7*---0----7*---|
 d|--0---------0---------|
 a|----------------------|
 D|----------------------|(20x)
 
Добавлено: 15.10.2013
Другие материалы по этой песне:
  • Аккорды и текст

Страница создана 15.10.2013
http://primanota.ru/chicosci/breathe-again-chords.htm
Привет, Гость.
Предлагаем пройти революционный курс по гитаре.
Подарок от PrimaNota.Ru, забирай!