PrimaNota.ru - самый крупный в мире бесплатный архив песенных текстов, аккордов, табулатур и нот


Chicosci - 3rd Measure - таба, видео

Регистрация Запомнить меня
Войти через:  Facebook Google Twitter Vk Yandex Mail.ru

Chicosci - 3rd Measure - таба, видео

Печатать
Просмотров: 78
Уроки эстрадного вокала в Санкт-Петербурге
I don't know if this is just right but better than others :-) I enjoy!

INTRO & Chorus

Guitar 1
D|-----------------------------------------------------------------------------------------------------|
A|-----------------------------------------------------------------------------------------------------|
F|-----------------------------------------------------------------------------------------------------|
C|-4-6-6-6-6-7-7-7-6-6-6-6-4-6-6-6-6-9-9-9-7-7-7-7-2-4-4-4-4-6-x-x-x-x-x-x-x-x-0-0-0-0-0-0-2-2-2-2-2-2-|
G|-4-4-4-4-4-4-4-4-4-4-4-4-0-0-0-0-0-0-0-0-0-0-0-0-2-2-2-2-2-2-x-x-x-x-x-x-x-x-0-0-0-0-0-0-2-2-2-2-2-2-|
C|-4-4-4-4-4-4-4-4-4-4-4-4-0-0-0-0-0-0-0-0-0-0-0-0-2-2-2-2-2-2-x-x-x-x-x-x-x-x-0-0-0-0-0-0-2-2-2-2-2-2-|
Guitar 2
D|-----------------------------------------------------------------------------------------------------|
A|-----------------------------------------------------------------------------------------------------|
F|-----------------------------------------------------------------------------------------------------|
C|-4-6-6-6-6-7-7-7-6-6-6-6-4-6-6-6-6-9-9-9-7-7-7-7-2-4-4-4-4-6-6-6-6-6-7-7-7-7-------0-----------2-----|
G|-4-4-4-4-4-4-4-4-4-4-4-4-0-0-0-0-0-0-0-0-0-0-0-0-2-2-2-2-2-2-x-x-x-x-x-x-x-x-----0---0-0-----2---2-2-|
C|-4-4-4-4-4-4-4-4-4-4-4-4-0-0-0-0-0-0-0-0-0-0-0-0-2-2-2-2-2-2-x-x-x-x-x-x-x-x-0-0---------2-2---------|

X2

Guitar 1
D|-----------------------------------------------------------------------------------------------------|
A|-----------------------------------------------------------------------------------------------------|
F|-----------------------------------------------------------------------------------------------------|
C|-4-4-4-4-4-4-4-4-4-4-4-2-2-2-2-2-2-2-2-2-2-2-0-0-0-0-0-0-0-0-0-0-0-2-2-2-2-2-2-2-2-2-2-2-------------|
G|-4-4-4-4-4-4-4-4-4-4-4-2-2-2-2-2-2-2-2-2-2-2-0-0-0-0-0-0-0-0-0-0-0-2-2-2-2-2-2-2-2-2-2-2-------------|
C|-4-4-4-4-4-4-4-4-4-4-4-2-2-2-2-2-2-2-2-2-2-2-0-0-0-0-0-0-0-0-0-0-0-2-2-2-2-2-2-2-2-2-2-2-------------|
Guitar 2
D|-----------------------------------------------------------------------------------------------------|
A|------------------------------------------------------------------------------------10-9-------------|
F|-------9------9--------------9------9--------------9------9--------------9------9--------------------|
C|------7------7------7-------7------7------7-------7------7------7-------7------7---------------------|
G|-9-9-9--9-9-9--9-9-9---9-9-9--9-9-9--9-9-9---9-9-9--9-9-9--9-9-9---9-9-9--9-9-9---7------------------|
C|-----------------------------------------------------------------------------------------------------|
              Taking Back           Overdone                  Free and Safely
Guitar 1
D|-----------------------------------------------------------------------------------------------------|
A|-----------------------------------------------------------------------------------------------------|
F|-----------------------------------------------------------------------------------------------------|
C|-4-4-4-4-4-4-4-4-4-4-4-2-2-2-2-2-2-2-2-2-2-2-0-0-0-0-0-0-0-0-0-0-0-2-2-2-2-2-2-2-2-2-2-2-------------|
G|-4-4-4-4-4-4-4-4-4-4-4-2-2-2-2-2-2-2-2-2-2-2-0-0-0-0-0-0-0-0-0-0-0-2-2-2-2-2-2-2-2-2-2-2-------------|
C|-4-4-4-4-4-4-4-4-4-4-4-2-2-2-2-2-2-2-2-2-2-2-0-0-0-0-0-0-0-0-0-0-0-2-2-2-2-2-2-2-2-2-2-2-------------|
Guitar 2
D|-----------------------------------------------------------------------------------------------------|
A|------------------------------------------------------------------------------------10-9-------------|
F|-------9------9--------------9------9--------------9------9--------------9------9--------------------|
C|------7------7------7-------7------7------7-------7------7------7-------7------7---------------------|
G|-9-9-9--9-9-9--9-9-9---9-9-9--9-9-9--9-9-9---9-9-9--9-9-9--9-9-9---9-9-9--9-9-9---7------------------|
C|-----------------------------------------------------------------------------------------------------|
              Souvenirs             Out of                Style
Guitar 1
D|-------------------------------------------------------------------|---------------------------------|
A|-------------------------------------------------------------------|---------------------------------|
F|-------------------------------------------------------------------|---------------------------------|
C|-4-4-4-4-4-4-4-4-4-4-4-2-2-2-2-2-2-2-2-2-2-2-0-0-0-0-0-0-0-0-0-0-0-|-0-0-0-0-0-0-2-2-2-2-2-2---------|
G|-4-4-4-4-4-4-4-4-4-4-4-2-2-2-2-2-2-2-2-2-2-2-0-0-0-0-0-0-0-0-0-0-0-|-0-0-0-0-0-0-2-2-2-2-2-2---------|
C|-4-4-4-4-4-4-4-4-4-4-4-2-2-2-2-2-2-2-2-2-2-2-0-0-0-0-0-0-0-0-0-0-0-|-0-0-0-0-0-0-2-2-2-2-2-2---------|
Guitar 2                                                             |
D|-------------------------------------------------------------------|---------------------------------|
A|-------------------------------------------------------------------|---------------------------------|
F|-------9------9--------------9------9--------------9------9--------|---------------------------------|
C|------7------7------7-------7------7------7-------7------7------7--|-------0-----------2-------------|
G|-9-9-9--9-9-9--9-9-9---9-9-9--9-9-9--9-9-9---9-9-9--9-9-9--9-9-9---|-----0---0-0-----2---2-2---------|
C|-------------------------------------------------------------------|-0-0---------2-2-----------------|
            Do it so            I'll be Mad         You'll be Gone
Chorus

Guitar 1
D|-----------------------------------------------------------------------------------------------------|
A|-----------------------------------------------------------------------------------------------------|
F|-----------------------------------------------------------------------------------------------------|
C|-4-6-6-6-6-7-7-7-6-6-6-6-4-6-6-6-6-9-9-9-7-7-7-7-2-4-4-4-4-6-x-x-x-x-x-x-x-x-0-0-0-0-0-0-2-2-2-2-2-2-|
G|-4-4-4-4-4-4-4-4-4-4-4-4-0-0-0-0-0-0-0-0-0-0-0-0-2-2-2-2-2-2-x-x-x-x-x-x-x-x-0-0-0-0-0-0-2-2-2-2-2-2-|
C|-4-4-4-4-4-4-4-4-4-4-4-4-0-0-0-0-0-0-0-0-0-0-0-0-2-2-2-2-2-2-x-x-x-x-x-x-x-x-0-0-0-0-0-0-2-2-2-2-2-2-|
Guitar 2
D|-----------------------------------------------------------------------------------------------------|
A|-----------------------------------------------------------------------------------------------------|
F|-----------------------------------------------------------------------------------------------------|
C|-4-6-6-6-6-7-7-7-6-6-6-6-4-6-6-6-6-9-9-9-7-7-7-7-2-4-4-4-4-6-6-6-6-6-7-7-7-7-------0-----------2-----|
G|-4-4-4-4-4-4-4-4-4-4-4-4-0-0-0-0-0-0-0-0-0-0-0-0-2-2-2-2-2-2-x-x-x-x-x-x-x-x-----0---0-0-----2---2-2-|
C|-4-4-4-4-4-4-4-4-4-4-4-4-0-0-0-0-0-0-0-0-0-0-0-0-2-2-2-2-2-2-x-x-x-x-x-x-x-x-0-0---------2-2---------|
                 I've Said that You've been Going Upon              On My Bed

Guitar 1
D|-----------------------------------------------------------------------------------------------------|
A|-----------------------------------------------------------------------------------------------------|
F|-----------------------------------------------------------------------------------------------------|
C|-4-6-6-6-6-7-7-7-6-6-6-6-4-6-6-6-6-9-9-9-7-7-7-7-2-4-4-4-4-6-x-x-x-x-x-x-x-x-0-0-0-0-0-0-2-2-2-2-2-2-|
G|-4-4-4-4-4-4-4-4-4-4-4-4-0-0-0-0-0-0-0-0-0-0-0-0-2-2-2-2-2-2-x-x-x-x-x-x-x-x-0-0-0-0-0-0-2-2-2-2-2-2-|
C|-4-4-4-4-4-4-4-4-4-4-4-4-0-0-0-0-0-0-0-0-0-0-0-0-2-2-2-2-2-2-x-x-x-x-x-x-x-x-0-0-0-0-0-0-2-2-2-2-2-2-|
Guitar 2
D|-----------------------------------------------------------------------------------------------------|
A|-----------------------------------------------------------------------------------------------------|
F|-----------------------------------------------------------------------------------------------------|
C|-4-6-6-6-6-7-7-7-6-6-6-6-4-6-6-6-6-9-9-9-7-7-7-7-2-4-4-4-4-6-6-6-6-6-7-7-7-7-------0-----------2-----|
G|-4-4-4-4-4-4-4-4-4-4-4-4-0-0-0-0-0-0-0-0-0-0-0-0-2-2-2-2-2-2-x-x-x-x-x-x-x-x-----0---0-0-----2---2-2-|
C|-4-4-4-4-4-4-4-4-4-4-4-4-0-0-0-0-0-0-0-0-0-0-0-0-2-2-2-2-2-2-x-x-x-x-x-x-x-x-0-0---------2-2---------|
   Tango With Daddy     And Separate Only    Smile My Only  Rights of Passage


Guitar 1
D|-----------------------------------------------------------------------------------------------------|
A|-----------------------------------------------------------------------------------------------------|
F|-----------------------------------------------------------------------------------------------------|
C|-4-4-4-4-4-4-4-4-4-4-4-2-2-2-2-2-2-2-2-2-2-2-0-0-0-0-0-0-0-0-0-0-0-2-2-2-2-2-2-2-2-2-2-2-------------|
G|-4-4-4-4-4-4-4-4-4-4-4-2-2-2-2-2-2-2-2-2-2-2-0-0-0-0-0-0-0-0-0-0-0-2-2-2-2-2-2-2-2-2-2-2-------------|
C|-4-4-4-4-4-4-4-4-4-4-4-2-2-2-2-2-2-2-2-2-2-2-0-0-0-0-0-0-0-0-0-0-0-2-2-2-2-2-2-2-2-2-2-2-------------|
Guitar 2
D|-----------------------------------------------------------------------------------------------------|
A|------------------------------------------------------------------------------------10-9-------------|
F|-------9------9--------------9------9--------------9------9--------------9------9--------------------|
C|------7------7------7-------7------7------7-------7------7------7-------7------7---------------------|
G|-9-9-9--9-9-9--9-9-9---9-9-9--9-9-9--9-9-9---9-9-9--9-9-9--9-9-9---9-9-9--9-9-9---7------------------|
C|-----------------------------------------------------------------------------------------------------|
            Only You              Mark My              Words
Guitar 1
D|-------------------------------------------------------------------|---------------------------------|
A|-------------------------------------------------------------------|---------------------------------|
F|-------------------------------------------------------------------|---------------------------------|
C|-4-4-4-4-4-4-4-4-4-4-4-2-2-2-2-2-2-2-2-2-2-2-0-0-0-0-0-0-0-0-0-0-0-|-0-0-0-0-0-0-2-2-2-2-2-2---------|
G|-4-4-4-4-4-4-4-4-4-4-4-2-2-2-2-2-2-2-2-2-2-2-0-0-0-0-0-0-0-0-0-0-0-|-0-0-0-0-0-0-2-2-2-2-2-2---------|
C|-4-4-4-4-4-4-4-4-4-4-4-2-2-2-2-2-2-2-2-2-2-2-0-0-0-0-0-0-0-0-0-0-0-|-0-0-0-0-0-0-2-2-2-2-2-2---------|
Guitar 2                                                             |
D|-------------------------------------------------------------------|---------------------------------|
A|-------------------------------------------------------------------|---------------------------------|
F|-------9------9--------------9------9--------------9------9--------|---------------------------------|
C|------7------7------7-------7------7------7-------7------7------7--|-------0-----------2-------------|
G|-9-9-9--9-9-9--9-9-9---9-9-9--9-9-9--9-9-9---9-9-9--9-9-9--9-9-9---|-----0---0-0-----2---2-2---------|
C|-------------------------------------------------------------------|-0-0---------2-2-----------------|
           To Get Engaged       in California

Chorus

Ending
Guitar 1 & Guitar 2
D|--------------------------------------------------------------------------------------------|
A|--------------------------------------------------------------------------------------------|
F|--------------------------------------------------------------------------------------------|
C|-0---------------------2---------------------4------------------------9---------------------|x3
G|-0---------------------2---------------------4------------------------7---------------------|
C|-0---------------------2---------------------4------------------------7---------------------|
         Don't           Say                   I'm the One You Wan't to lose
Guitar 1 & Guitar 2
D|--------------------------------------------------------------------------------------------------|
A|--------------------------------------------------------------------------------------------------|
F|--------------------------------------------------------------------------------------------------|
C|-0-0-0-0-0-0-0-0-0-0-0-2-2-2-2-2-2-2-2-2-2-2-4-4-4-4-4-4-4-4-4-4-4-9-9-9-9-9-9-9-9-9-9-9----------|x3
G|-0-0-0-0-0-0-0-0-0-0-0-2-2-2-2-2-2-2-2-2-2-2-4-4-4-4-4-4-4-4-4-4-4-7-7-7-7-7-7-7-7-7-7-7----------|
C|-0-0-0-0-0-0-0-0-0-0-0-2-2-2-2-2-2-2-2-2-2-2-4-4-4-4-4-4-4-4-4-4-4-7-7-7-7-7-7-7-7-7-7-7----------|
   Don't                 Say                   I'm the One You Wan't to lose

Guitar 1
D|---------------------------------|
A|---------------------------------|
F|---------------------------------|
C|-0-0-0-0-0-0-2-2-2-2-2-2---------|
G|-0-0-0-0-0-0-2-2-2-2-2-2---------|
C|-0-0-0-0-0-0-2-2-2-2-2-2---------|
Guitar 2                           |
D|---------------------------------|
A|---------------------------------|
F|---------------------------------|
C|-------0-----------2-------------|
G|-----0---0-0-----2---2-2---------|
C|-0-0---------2-2-----------------|

	
Добавлено: 02.09.2013
Другие материалы по этой песне:
  • Аккорды и текст

Страница создана 02.09.2013
http://primanota.ru/chicosci/3rd-measure-chords.htm
Привет, Гость.
Предлагаем пройти революционный курс по гитаре.
Подарок от PrimaNota.Ru, забирай!