PrimaNota.ru - самый крупный в мире бесплатный архив песенных текстов, аккордов, табулатур и нот


Chickenfoot - Turnin Left - таба, видео

Регистрация Запомнить меня
Войти через:  Facebook Google Twitter Vk Yandex Mail.ru

Chickenfoot - Turnin Left - таба, видео

Печатать
Просмотров: 141
Уроки эстрадного вокала в Санкт-Петербурге
Авторы музыки: Joe Satriani, Sammy Hagar
Авторы текста: Joe Satriani, Sammy Hagar
Alright this is my verson of the song is Standard tuning cause i don't tune a half step down.

e|---------------------------------------|
b|---------------------------------------|
g|---------------------------------------|
d|---------------------------------------|
a|-----------------------7h8-6--44-------|
e|--9p66666666--9p66666666-----------6---|
     pm......  pm.......

then the lower part

e|--------------------------------------|
b|--------------------------------------|
g|--------------------------------------|
d|--------------------------------------|
a|--------------------2h3-1-------------|
e|-4-111111--4-111111--------44-1-------|
     pm....    pm....

e|------------------------------------------|
b|------------------------------------------|
g|------------------------------------------|
d|-----------------------------------------6|
a|-----------------------7h8-6--44-------6--|
e|---9p66666666---9p66666666-----------6----|

I fixed the next part.

e|----------------------------------------------------------------|
b|----------------------------------------------------------------|
g|----------------------------------------------------------------|
d|-8p6------6----------------------------6-8----6-8---------------|
a|-----8p6----8p6----8p6-------------6-8--------6-8---------------|
e|-----------------9------9p6----6-9------------4-6---------------|


e|-------------------------------------------------------|
b|-6-----------------------------------------------------|
g|---8-6----6-----------------------------------6--------|
d|-------8----8-6----8-6----------------6-8--6--6--8-----|
a|----------------8------8-6--------6-8------6--4--8-----|
e|------------------------------6-9----------4-----6-----|
Добавлено: 11.04.2012
Другие материалы по этой песне:

Страница создана 18.03.2012
http://primanota.ru/chickenfoot/turnin-left-chords.htm
Привет, Гость.
Предлагаем пройти революционный курс по гитаре.
Подарок от PrimaNota.Ru, забирай!