PrimaNota.ru - самый крупный в мире бесплатный архив песенных текстов, аккордов, табулатур и нот


Chickenfoot - Different Devil - таба, видео

Регистрация Запомнить меня
Войти через:  Facebook Google Twitter Vk Yandex Mail.ru

Chickenfoot - Different Devil - таба, видео

Печатать
Просмотров: 151
DIFFERENT DEVIL (Chikenfoot III) 
-Hagar, Satriani, Anthony, Smith

Tuned Half Step down - D# 


Intro
|-----12----------11------|------11----12---9-------|
|-----12----------12------|------9----------9-------|
|----9----------9---------|----9----------6---------|
|-------------------------|-------------------------|
|-------------------------|-------------------------|
|-------------------------|-------------------------|



Acoustic Strumming - Verse 
|-------------------------|-------------------------|
|-------------------------|-------------------------|
|------9------------------|------8------------------|
|------9------------------|------9------------------|
|-----7-------------------|-----7-------------------|
|---0-------0-0-0-0-0--0--|---0-------0-0-0-0-0--0--|

|-------------------------|-------------------------|
|-------------------------|-------------------------|
|------8------------------|------6------------------|
|------6------------------|------6------------------|
|-----7-------------------|-----4-------------------|
|---0-------0-0-0-0-0--0--|---0-------0-0-0-0-0--0--|


Bridge
We all know somebody's    gonna tell you just what to do
|-------------------------|-------------------------|
|-------------------------|-------------------------|
|----9-------9-9-9-8------|-------------------------|
|----9-------9-9-9-9------|----9-9-9-9-----9-9-9-8--|
|----7-------7-7-7-7------|----9-9-9-7-----7-7-7-9--|
|----0-0-----0-0-0-0------|--0-7-7-7-7---7-7-7-7-7--|


Chorus x3
Walk away!
|--------0----------------|-------------------------|
|--------0----------------|-------------------------|
|--------1----------------|-4--4-4-4-3-----4-4-4-3--|
|--------2--------2-2~----|-4--4-4-4-4---4-4-4-4-4--|
|--------2--------2-2~----|-2--2-2-2-2---2-2-2-2-2--|
|------0-0---0-0--0-0-----|-------------------------|

Turn around babe,       I'll be right there waitin for you
|--------0----------------|------0------------------|
|--------0----------------|------0------------------|
|--------1----------------|----2-2-------2-2---1----|
|--------2--------2-2~----|----2-2-------2-2--2-----|
|--------2--------2-2~----|----0-0-------0-0-0---0--|
|------0-0---0-0--0-0-----|-------------------------|


Solo

|--10/12---12--10-------------------------------------|
|---------------h12p-10\8--10/12--10\8--------8/10\8--|
|----------------------------------------9--7---------|
|-----------------------------------------------------|
|-----------------------------------------------------|
|-----------------------------------------------------|

|--10----------10/12~--------10-----------------------|
|----h12p-10\8-----------------h12p-10\8--10/12~------|
|-----------------------------------------------9~----|
|-----------------------------------------------------|
|-----------------------------------------------------|
|-----------------------------------------------------|


Last Bit

|-------------------------|----------------------------|
|-------------------------|----------------------------|
|---9-9-9\------6-6-6\----|---4-4-4/------6-6-6\-------|
|---9-9-9\------6-6-6\----|---4-4-4/------6-6-6\-------|
|---7-7-7\------4-4-4\----|---2-2-2/------4-4-4\-------|
|-------------------------|----------------------------|

|-------------------------|----------------------------|
|-------------------------|----------------------------|
|---4-4-4\------6-6-6\----|---4-4-4/------6-6-6\-------|
|---4-4-4\------6-6-6\----|---4-4-4/------6-6-6\-------|
|---2-2-2\------4-4-4\----|---2-2-2/------4-4-4\-------|
|-------------------------|----------------------------|


Lyrics

There's a wise old tale
Bout the same old Hell
Only the Devil is changed
With two brand new lovers
Rollin' in the covers
Everybody wants to strange

We all know somebody's gonna tell you just what to do
But it don't mean nothin' less it's got somethin for me and you

Walk Away!
If you think there's someone better
Run Away!
Into the arms of somethin new
You can stay!
If you think he'll treat you better than I do
Turn around babe
I'll be right here waitin for you

Hey we're both gettin older
We shoulda known better
Some things stay the same
You want your freedom
And I'm so jealous
No one's gonna change

We all know somebody's gonna tell what's right to do
Hey I'm sittin here, listen, baby I'm missin you

Walk Away!
If you think there's someone better, yeah
Run Away!
Into the arms of somethin new
You can stay!
If you think he'll treat you better than I do
Turn around babe
I'll be right here waitin for you

(Solo)

There's a sweet dark angel
On my shoulder
Singin in my ear
From the bad side of Heaven
With all her glory
Salvation's here

We all know somebody's gonna tell you just what to do
But it don't mean nothin' less it means somethin for me and you

Walk Away!
If you think there's someone better
Run Away!
Into the arms of somethin new
You can stay!
If you think he'll treat you better than I do
Turn around babe
I'll be right here waitin for you
Добавлено: 03.04.2012
Другие материалы по этой песне:
  • Аккорды и текст

Страница создана 03.04.2012
http://primanota.ru/chickenfoot/different-devil-chords.htm
Привет, Гость.
Предлагаем пройти революционный курс по гитаре.
Подарок от PrimaNota.Ru, забирай!