PrimaNota.ru - самый крупный в мире бесплатный архив песенных текстов, аккордов, табулатур и нот


Chicane - Calvaire - таба, видео

Регистрация Запомнить меня
Войти через:  Facebook Google Twitter Vk Yandex Mail.ru

Chicane - Calvaire - таба, видео

Печатать
Просмотров: 96
Intro :
        Am      Am      Fmaj7         Fmaj7           Am            Am
 -------8-10-12---12(10)----12(10)-8-10-8-10-8-7-8--------------|
 ---8----------------bend down----------------------------------|
 -9---9---------------------------------------------------------|
 ---------------------------------------------------------------|
 ---------------------------------------------------------------|
 ---------------------------------------------------------------|


    Fmaj7     E              Am                    Am
 -7-8-7--8-7-- ------ ---      -----8-12(10)--------|
 ------------10-8---- ---      --10-----------------|
 -----------------9-- -(descente)-------------------|
 -------------------10-9~~~~~~~~1-------------------|
 ---------------------------------------------------|
 ---------------------------------------------------|

              Fmaj7                    Fmaj7
 -10-8-10-8-- -10(12)-12(15)-15-12-10-12-12-10-|
 -- ---- ---10--    --    -- -- -- -- -- -- ---|
 -- ---- ---- --    --    -- -- -- -- -- -- ---|
 -- ---- ---- --    --    -- -- -- -- -- -- ---|
 -- ---- ---- --    --    -- -- -- -- -- -- ---|
 -- ---- ---- --    --    -- -- -- -- -- -- ---|


            Am             Am           Fmaj7
 -- -15-17-19-20--19-17-19-19-17-(19)17-15-- -- -|
 -17-- -- -- -- --- -- -- -- -- -    - -- -18-17-|
 -- -- -- -- -- --- -- -- -- -- -    - -- -- -- -|
 -- -- -- -- -- --- -- -- -- -- -    - -- -- -- -|
 -- -- -- -- -- --- -- -- -- -- -    - -- -- -- -|
 -- -- -- -- -- --- -- -- -- -- -    - -- -- -- -|

       E
 -- -- --      ---|
 -15-13-12~~~~~~~-|
 -- -- --      ---|
 -- -- --      ---|
 -- -- --      ---|
 -- -- --      ---|


 (Piano)        Am      G     Em
 Encore une autre nuit amère
                   D/F# (254232)    E/G# (476454)
A m'chercher quelque chose à faire
                     Am          G         F
 Ca m'prend pas moins pour me rappeler
                              E/G#
 Q'hier soir j'me suis saoulé
 (Band)           Am           G         E
 C't'après-midi quand j'me suis l'vé
              D/F#                   E/G#
 Assis devant la machine à café
                   Am      G      F
 En train de m'réveiller le passé
                                 E/G#
 C'est là j'ai vu qu't'étais pressé


               Fmaj7
 J'ai d'la misère en calvaire
               G
 J'ai du ressentiment dans l'sang
                 Em
 C'est comme la rage dans une cage
               E/G#
 R'tiens-moi j'me dévore le corps
                   F            G
 J'ai besoin d'toé pour m'l'dire
                 E/G#                 Am
 Dans mes erreurs les plus pires
       G              F                G
 J'veux pas connaître tes rengaines
                     E/G#                    Am      F    Fmaj7/4 (133200)
 J'veux juste que tu m'dises que tu m'aimes


                Am      G         E
 Partis sans me faire engueuler
              D/F#                   E/G#
 J'le sais tu m'avais dit j'va t'aider
                Am      G         F
 Ça fait cent fois qu'j'te l'ai promis
                                   E/G#
 Asteur tu m'e r'gard et pis tu ris
                Am       G         E
 Chu pas ton exemple de confiance
                   D/F#                    E/G#
 Mais j'ai ben l'droit de prendre ma chance
               Am      G      F
 Rendu au bout si chu perdu
                                       E/G#
 Ca voudra dire que tu m'aimes pu


               Fmaj7
 J'ai d'la misère en calvaire
               G
 J'ai du ressentiment dans l'sang
                    Em
 C'est comme la rage dans une cage
               E/G#
 R'tiens-moi j'me dévore le corps
                   F            G
 J'ai besoin d'toé pour m'l'dire
                 E/G#               Am
 Dans mes erreurs les plus pires
         G            F                G
 J'veux pas connaître tes rengaines
                     E/G#                     Am      (gosse en  A )
 J'veux juste que tu m'dises que tu m'aimes


         F          G         E/G#
 ---- ----   ---- ------- ------8---7-- -----|
 ---- ----   ---- ------- ------------10-8---|
 ---- -7-8(9)-7-- --8-7-- -7--9---9---- ---9-|
 -7-10----   ---10------10------------- -----|
 ---- ----   ---- ------- ------------- -----|
 ---- ----   ---- ------- ------------- -----|

           Am      G         F            G
 -------- ---- ------7---- ------- -------- ---|
 -------- ---- ----7------ ------- -------- ---|
 -7-9-7-- -7-- --7-------- ------- -7-9-7-- -7-|
 -------10---10--------9-10-7-7--10-------10---|
 -------- ---- ----------- ------- -------- ---|
 -------- ---- ----------- ------- -------- ---|


               E/G#
 ---- ---- ------ ---|
 ---- ---- ------ ---|
 ---- ---- ---7-- ---|
 ---- ---- -9---10-9-|
 ---- -7-11------ ---|
 -7-10---- ------ ---|


               Fmaj7
 J'ai d'la misère en calvaire
               G
 J'ai du ressentiment dans l'sang
                    Em
 C'est comme la rage dans une cage
               E/G#
 R'tiens-moi j'me dévore le corps
                   F            G
 J'ai besoin d'toé pour m'l'dire
                 E/G#                 Am
 Dans mes erreurs les plus pires
      G              F                G
 J'veux pas connaître tes rengaines
                     E/G#                     Am          Am
 J'veux juste que tu m'dises que tu m'aimes
                F             G
 J'ai d'la misère en calvaire
                E/G#                  Am
 J'ai du ressentiment dans l'sang
     G               F                G
 C'est comme la rage dans une cage
               E/G#                (silence)
 R'tiens-moi j'me dévore le corps
                   F            G
 J'ai besoin d'toé pour m'l'dire
                 E/G#                 Am
 Dans mes erreurs les plus pires
                   F                G
 J'veux pas connaître tes rengaines
                     E/G#                   Am/D    C    E    A9
 J'veux juste que tu m'dises que tu m'aimes
Добавлено: 22.11.2013
Вам также может быть интересно:
Другие материалы по этой песне:
  • Аккорды и текст

Страница создана 22.11.2013
http://primanota.ru/chicane/calvaire-chords.htm
Привет, Гость.
Предлагаем пройти революционный курс по гитаре.
Подарок от PrimaNota.Ru, забирай!