PrimaNota.ru - самый крупный в мире бесплатный архив песенных текстов, аккордов, табулатур и нот


Chicane - Autumn Tactics - аккорды и текст, видео

Регистрация Запомнить меня
Войти через:  Facebook Google Twitter Vk Yandex Mail.ru

Chicane - Autumn Tactics - аккорды и текст, видео

Печатать
Просмотров: 162
Авторы музыки: Nick Bracegirdle, Ray Hedges
Авторы текста: Nick Bracegirdle, Ray Hedges
Autumn Tactics
Chicane
Artist: Chicane
Song: Autumn Tactics
Album: ?
Tabbed by: Colin Boylan (HairyJapeneseGoldfish)
Date: 2/5/02
Email: colin_boylan@hotmail.com

This song is really cool .i hate dance music but this song
was on one of my sister cds i had to learn it.

Main riff
e|--5--5--5--5-------------5--5--5--5--------------
b|--5--6--5--6---5---------5--6--5--6---5------------
g|--5--7--5--7---5-ring----5--7--5--7---5-ring-------
d|---------------5----------------------5-----------
a|--------------------------------------------------
E|--------------------------------------------------

e|--5--5--5--5--8-----------5--5--5--5--8-----------
b|--5--6--5--6----5---------5--6--5--6-----5--------
g|--5--7--5--7----5-ring----5--7--5--7-----5-ring---
d|----------------5------------------------5--------
a|--------------------------------------------------
E|--------------------------------------------------

Thats it! Comments ,hate mail etc..... email me i need friends

     
Добавлено: 06.06.2013
Другие материалы по этой песне:
  • Аккорды и текст

Страница создана 26.04.2012
http://primanota.ru/chicane/autumn-tactics-chords.htm
Привет, Гость.
Предлагаем пройти революционный курс по гитаре.
Подарок от PrimaNota.Ru, забирай!