PrimaNota.ru - самый крупный в мире бесплатный архив песенных текстов, аккордов, табулатур и нот


Chicago - Wake Up Sunshine - текст песни, бас-таба, видео

Регистрация Запомнить меня
Войти через:  Facebook Google Twitter Vk Yandex Mail.ru

Chicago - Wake Up Sunshine - текст песни, бас-таба, видео

Печатать
Просмотров: 223
|--------|--------|--------|--------|
|10------|99------|77------|66------|
|--------|--------|--------|--------|
|--------|--------|--------|--------|

|--------|--------|--------|--------|
|--------|--------|--------|--------|
|6-------|55------|33------|--------|
|--------|--------|--------|3-3-3-3-|

Verse 1 "Wake up sunshine..."

|--------|--------|--------|--------|
|--------|3-3-3-2-|--------|----2-3-|
|3-3-3-3-|--------|5-3-2---|3-5-----|
|--------|--------|------5-|--------|

                     "I've been waiting ..."
|--------|--------|--------|--------|
|5-5-----|5553----|5-5-----|------5-|
|--------|----53--|--------|5-7-8---|
|--------|------3-|--------|--------|

|--------|--------|
|5-5-----|------5-|
|--------|5-7-8---|
|--------|--------|

"Sunshine, sunshine ..."
|--------|4-4-4-4-|2-2-2-2-|--------|
|5-5-5-5-|--------|--------|3-3-5-5-|
|--------|--------|--------|--------|
|--------|--------|--------|--------|

Verse 2 (repeat Verse 1)

Horn section

|5-5-5-5-|5-5-5-5-|5-4-3-2-|
|--------|--------|--------|
|--------|--------|--------|
|--------|--------|--------|

Bridge "You know I'm talkin' to you ..."

|2-2-2-2-|3-3-3-3-|2-2-2-2-|3-3-3-3-|
|--------|--------|--------|--------|
|--------|--------|--------|--------|
|--------|--------|--------|--------|

|2-2-2-2-|--------|--------|--------|
|--------|---2-3-5|55555555|55555555|
|--------|--5-----|--------|--------|
|--------|5-------|--------|--------|

|--------|--------|--------|----3-3-|
|3-3-3-3-|3-3-3-3-|5-5-5-5-|5-5-----|
|--------|--------|--------|--------|
|--------|--------|--------|--------|

Verse 3 (repeat Verse 1)

"You got to wake up girl ..."
|--------|8-8-8-8-|7-7-7-7-|5-5-5-5-|
|6-6-6-6-|--------|--------|--------|
|--------|--------|--------|--------|
|--------|--------|--------|--------|

|--------| |
|5-5-5-5-| | synth solo to close...
|--------| |
|--------| |
Добавлено: 23.06.2012
Другие материалы по этой песне:
  • Аккорды и текст

Страница создана 22.03.2012
http://primanota.ru/chicago/wake-up-sunshine-chords.htm
Привет, Гость.
Предлагаем пройти революционный курс по гитаре.
Подарок от PrimaNota.Ru, забирай!