PrimaNota.ru - самый крупный в мире бесплатный архив песенных текстов, аккордов, табулатур и нот


Chic - I Want Your Love - текст песни, бас-таба, видео

Регистрация Запомнить меня
Войти через:  Facebook Google Twitter Vk Yandex Mail.ru

Chic - I Want Your Love - текст песни, бас-таба, видео

Печатать
Просмотров: 253
Авторы музыки: Bernard Edwards, Nile Rodgers

Noticed the tab wasn't on this site, found it here: http://www.ilovetabs.com/en/chic-i-want-your-love.html
-nagamaster

Chic: I Want Your Love

Chorus :
                                                                  
G|--------|--------|--------|--------|--------|--------|--------|--------|
D|--------|--------|--------|--------|--------|--------|--------|--------|
A|--------|--------|--------|--------|--------|-----076|5-5--056|7-7-----| X2
E|5-5--5-0|5------0|345-----|0------0|1-1--1-0|1-------|--------|-----034|

Verse :
                           
G|--------|--------|--------|--------|--------|--------|--------|--------|
D|--------|--------|--------|--------|--------|--------|--------|--------|
A|--------|--------|--------|--------|--------|--------|--------|--------| X4
E|5-5--5-0|5------0|3-5--5-0|5----034|5-5--5-0|5------0|3-5--5-0|5------0|

                              
G|--------|--------|--------|--------|--------|--------|--------|--------|
D|--------|--------|--------|--------|--------|--------|--------|----5h7-|
A|--------|--------|--------|--------|--------|--------|--------|--------| X4
E|5-5--5-0|5------0|3-5--5-0|5----034|5-5--5-0|5------0|3-5--5-0|5------0|

Chorus
  
Verse 2 : X2
                        
G|--------|-------|--------|--------|--------|------|--------|--------|--------|--------|--------|--------|
D|--------|-------|--------|--------|--------|------|--------|--------|--------|--------|--------|--------|
A|--------|-------|--------|--------|--------|------|--------|--------|--------|--------|--------|--------|
E|5-5--5-0|5-----0|3-5--5-0|5----034|5-5--5-0|5----0|3-5--5-0|5------0|5-5--5-0|5------0|3-5--5-0|5----034|

          X2                  
G|--------|-------|--------|--------|--------|------|--------|--------|--------|--------|--------|--------|
D|--------|-------|--------|--------|--------|------|--------|--------|--------|--------|--------|----5h7-|
A|--------|-------|--------|--------|--------|------|--------|--------|--------|--------|--------|--------|
E|5-5--5-0|5-----0|3-5--5-0|5------0|5-5--5-0|5----0|3-5--5-0|5----034|5-5--5-0|5------0|3-5--5-0|5------0|

Chorus 2 :
G|--------|--------|--------|--------|--------|--------|--------|--------|
D|--------|--------|--------|--------|--------|--------|--------|--------|
A|--------|--------|--------|--------|--------|-----076|5-5--056|7-7-----|
E|5-5--5-0|5------0|345-----|0------0|1-1--1-0|1-------|--------|-----034|

G|--------|--------|--------|--------|--------|--------|--------|--------|
D|--------|--------/7-------|--------|--------|--------|--------|-----056|
A|--------|--------|--------|--------|--------|-----076|5-5--056|7-7-----|
E|5-5--5-0|5------5|--5-----|0------0|1-1--1-0|1-------|--------|--------|

G|--------|--------|--------|--------|--------|--------|--------|--------|
D|7-------|--------|--------|--------|--------|--------|--------|--------|
A|--------|--------|--------|--------|--------|-----076|5-5--056|7-7-----|
E|--5--5-0|5------0|345-----|0------0|1-1--1-0|1-------|--------|-----034|

G|--------|--------|--------|--------|--------|--------|--------|--------|
D|--------|--------|--------|--------|--------|--------|--------|--------|
A|--------|--------|--------|--------|--------|-----076|5-5--056|7-7-----|
E|5-5--5-0|5------0|345-----|0------0|1-1--1-0|1-------|--------|-----034|

G|--------|--------|--------|--------|--------|--------|--------|--------|
D|--------|--------/7-------|--------|--------|--------|--------|--------|
A|--------|--------|--------|--------|--------|-----076|5-5--056|7-7-----|
E|5-5--5-0|5-----55|--5-----|0------0|1-1--1-0|1-------|--------|-----034|

G|--------|--------|--------|--------|--------|--------|--------|--------|
D|--------|--------|--------|--------|--------|--------|--------|-----056|
A|--------|--------|--------|--------|--------|-----076|5-5--056|7-7-----|
E|5-5--5-0|5------0|345-----|0------0|1-1--1-0|1-------|--------|--------|

Outro :
G|--------|--------|--------|--------|--------|--------|--------|--------|
D|7-------|--------|--------|--------|--------|--------|--------|--------|
A|--------|--------|--------|--------|--------|-----076|5-5--056|7-7-----|
E|--5--5-0|5------0|345-----|0------0|1-1--1-0|1-------|--------|-----034|

                                                                
G|--------|--------|--------|--------|--------|--------|--------|--------|
D|--------|--------|--------|--------|--------|--------|--------|--------|
A|--------|--------|--------|--------|--------|-----076|5-5--056|7-7-----| X4
E|5-5--5-0|5------0|345-----|0------0|1-1--1-0|1-------|--------|-----034|
Добавлено: 21.10.2014
Другие материалы по этой песне:

Страница создана 02.06.2012
http://primanota.ru/chic/i-want-your-love-chords.htm
Привет, Гость.
Предлагаем пройти революционный курс по гитаре.
Подарок от PrimaNota.Ru, забирай!