PrimaNota.ru - самый крупный в мире бесплатный архив песенных текстов, аккордов, табулатур и нот


Cheyennes Promise - Ashes To Wind - таба, видео

Регистрация Запомнить меня
Войти через:  Facebook Google Twitter Vk Yandex Mail.ru

Cheyennes Promise - Ashes To Wind - таба, видео

Печатать
Просмотров: 67
/   = Slide Up/Down
p   = Pull-Off
h   = Hammer-on
<   = Tremolo Pick
b   = Bend (1/4, 1/2, 1 indicates percentage of bend)
x   = Dead Note
*   = palm mute
C#|--------------------------------------------------------------------------| (2x)
G#|--------------------------------------------------------------------------|
E |--------------------------------------------------------------------------|
B |--------------------------------------------------------------------------|
F#|-<1---------<4------------0-2-1-0-----------------------------------------|
B |------<2----------<1------0-2-1-0-----------------------------------------|
                             * * * *
C#|-----------------------------------------------------------------------|x2]
G#|-----------------------------------------------------------------------|
E |-----------------------------------------------------------------------|
B |--0-0-0--0-0-0---------------------------------------------------------|
F#|--0-0-0--0-0-0---------------------------------------------------------|
B |--1-1-1--0-0-0---------------------------------------------------------|
     * * *  * * *
(listen to the song  a few times to get the actual rythm)




C#|---------------------------------------------------------------------------|x2]
G#|---------------------------------------------------------------------------|
E |---------------------------------------------------------------------------|
B |-1-0-0-0-2-0-0-0-------0-2-1-0-0-------------------------------------------|
F#|-1-0-0-0-2-0-0-0-1-----0-2-1-0-0-------------------------------------------|
B |-1-0-0-0-2-0-0-0---2-1-0-2-1-0-1-------------------------------------------|
      * * *   * * *       * * * * *
                        (like 10x)^
C#|---------------------------------------------------------------------------|x2]
G#|---------------------------------------------------------------------------|
E |---------------------------------------------------------------------------|
B |-0-0-0--0-0-0--------------------------------------------------------------|
F#|-0-0-0--0-0-0--------------------------------------------------------------|
B |-1-1-1--0-0-0--------------------------------------------------------------|
(listen to the song for the sctual rythm remember to pause for the leads harmonics)


C#|-------------------------------------------------------------------------|x2]
G#|-------------------------------------------------------------------------|
E |-------------------------------------------------------------------------|
B |-10--0--3--0--3----------------------------------------------------------|
F#|-8---0--3--0--3----------------------------------------------------------|
B |-8---0--3--0--3----------------------------------------------------------|
(yet again lol listen to the song to figure out the rythm speed pic while palmute
and realese at the "0-3-0-3" part)

C#|-----------------------------------------------------------------------|x4]
G#|-----------------------------------------------------------------------|
E |-----------------------------------------------------------------------|
B |-0-0-0----0-0-0--0-----------------------------------------------------|
F#|-0-0-0----0-0-0--0-----------------------------------------------------|
B |-1-1-1----1-1-1--0-----------------------------------------------------|
    * * *    * * *

*for the second verse just repeat the begining*

*then repat the chorus but instead of twice play it three times*


C#|-----------------------------------------------------------------------|x2]
G#|-----------------------------------------------------------------------|
E |-----------------------------------------------------------------------|
B |-0-0---0---------------------------------------------------------------|
F#|-0-0---0---------------------------------------------------------------|
B |-1-0---0---------------------------------------------------------------|
    * *
(lol figure out the rythm your self listen to the song those are the only 2
position your using in this part)

C#|------------------------------------------------------------------------|x4]
G#|------------------------------------------------------------------------|
E |------------------------------------------------------------------------|
B |--2-1-0-4-3-2--2-1-0-0-0-0-0--------------------------------------------|
F#|--2-1-0-4-3-2--2-1-0-0-0-0-0--------------------------------------------|
B |--2-1-0-4-3-2--2-1-0-1-1-1-1--------------------------------------------|
     * * * * * *  * * * * * * *
C#|-------------------------------------------------------------------------------|x2]
G#|-------------------------------------------------------------------------------|
E |-------------------------------------------------------------------------------|
B |---------------------------------------0-0-0-0---------------------------------|
F#|---------------------------------------0-0-0-0---------------------------------|
B |-<2--<1---<0---<4--<3--<2--<2--<1--<0--1-1-1-1---------------------------------|

*repeat chorus again after 3rd time end on a bar chord on the 8th fret*
Добавлено: 19.06.2013
Другие материалы по этой песне:
  • Аккорды и текст

Страница создана 19.06.2013
http://primanota.ru/cheyennes-promise/ashes-to-wind-chords.htm
Привет, Гость.
Предлагаем пройти революционный курс по гитаре.
Подарок от PrimaNota.Ru, забирай!