PrimaNota.ru - самый крупный в мире бесплатный архив песенных текстов, аккордов, табулатур и нот


Cheyenne Kimball - Drift Away - таба, видео

Регистрация Запомнить меня
Войти через:  Facebook Google Twitter Vk Yandex Mail.ru

Cheyenne Kimball - Drift Away - таба, видео

Печатать
Просмотров: 141
Уроки эстрадного вокала в Санкт-Петербурге
1st acoustic                          2nd acoustic 
|---------------------------------||------10----------|
|---------------------------------||------10----------|
|---2p0--------------2p0----------||------------------|
|-------5p0-2p0--2-4-----5p0-2p0--||------------------|
|---------------------------------||------------------|
|---------------------------------||------------------| 6 times and then drums

After drums start play ^ 4 times

1st electric
|------------|
|------------|
|----10------|
|-10----9-10-|
|------------|
|------------|
play when 1st acoustic goes back to the 2p0 to end the riff


Chorus

G            C
Sinking away
  E
I'm not worried to change
G                C
Dreaming of you every day
  E
Telling myself I'll be okay
G                   C
I can't I ever walked away
  E
I'll my time til I get it back
G                    C
I wanna take it back some day



Solo
1st acoustic                            1st Electric
|------------------------------------||---10--|
|------------------------------------||---10--|
|----2p0--------------2p0------------||-------|
|--------5p0--2p0-2-4-----5p0-2p0----||-------|
|------------------------------------||-------|
|------------------------------------||-------|

2nd acoustic
|------------------------------------|
|------------------------------------|
|------2-----0-----4-------10--------|
|--2-4---0-2---3-5------10----9-10---|
|------------------------------------|
|------------------------------------|

1st Electric
|-------14-----12-----10-----8----|
|-----15-----15-----13-----11-----|
|---14-----14-----12-----10-------|
|---------------------------------|
|---------------------------------|
|---------------------------------| play twice

Do the Chorus twice

and end with first riff
Добавлено: 24.03.2012
Другие материалы по этой песне:
  • Аккорды и текст

Страница создана 29.02.2012
http://primanota.ru/cheyenne-kimball/drift-away-chords.htm
Привет, Гость.
Предлагаем пройти революционный курс по гитаре.
Подарок от PrimaNota.Ru, забирай!