PrimaNota.ru - самый крупный в мире бесплатный архив песенных текстов, аккордов, табулатур и нот


Chewing On Tinfoil - Breso - бас-таба, видео

Регистрация Запомнить меня
Войти через:  Facebook Google Twitter Vk Yandex Mail.ru

Chewing On Tinfoil - Breso - бас-таба, видео

Печатать
Просмотров: 157
Новый альбом группы 'Черный Кузнец' по культовому сериалу 'Сверхъестественное'!
-----------------------------------------------------------------------------
			     BRESO - Chewing On Tinfoil
-----------------------------------------------------------------------------
Tabbed By : chewbacca97

Band Website: http://chewingontinfoil.bandcamp.com/

Tuning: Standard

No bass until 0:19

0:19 Intro
G|----------------------|
D|----------------------|
A|----------------------|
E|----5-5----777--------|

Verse A
G|-----------------4--------------------------------------------------------|
D|-----------6-----------6-----------------4-----------------------6--------|
A|-----7-----------------------------6-----------6-----------7-----------7--|
E|-----------------------------7-----------------------9--------------------|

G|-----------------------------|
D|-----7-----6-----------6-----| X2
A|-----------------9-----------|
E|-----------------------------|

Verse B
G|--------------------------------------------------------------------------|
D|--------------------------------------------------------------------------|
A|-----77--------------------------------77---------------------------------|
E|------------77-----99----55-77----------------77----99-----555-777--------|

Verse A X2

Chorus
G|------------------|
D|------------------|
A|-----4~--2~--0~---| X4
E|------------------|

Verse A X2
Verse B
Verse A X2
Chorus  X4

Break

So where did the time go who left the light on
G|---------------------------------------------------|
D|---------------------------------------------------|
A|---------------------------------------------------| X2
E|----------------------------------------------0~---|

  Where did the time go who left the light on, where did the time go  
G|--------------------------------------------------------------------------|
D|--------------------------------------------------------------------------|
A|--4~------------------2~--------------------------------------------------|
E|----------------------------------------------0~--------------------------|

   who left the light on
G|-------------------------|
D|-------------------------|
A|--2~---------------------|
E|-------------------------|

chorus X5






| /  slide up
| \  slide down
| h  hammer-on
| p  pull-off
| ~  vibrato
| +  harmonic
| x  Mute note
=============================================================================
Добавлено: 22.02.2012
Другие материалы по этой песне:

Страница создана 22.02.2012
http://primanota.ru/chewing-on-tinfoil/breso-chords.htm
Привет, Гость.
Предлагаем пройти революционный курс по гитаре.
Подарок от PrimaNota.Ru, забирай!