PrimaNota.ru - самый крупный в мире бесплатный архив песенных текстов, аккордов, табулатур и нот


Chevelle - Take Out The Gunman - таба, видео

Регистрация Запомнить меня
Войти через:  Facebook Google Twitter Vk Yandex Mail.ru

Chevelle - Take Out The Gunman - таба, видео

Печатать
Просмотров: 121
Авторы: Sam Loeffler, Pete Loeffler

take out the gunman
drop c

p - pull off
h - hamer 0on
t- tremelo picking

intro/preverse

-----------------------------------------------------------------------------------------|
-----------------------------------------------------------------------------------------|
-----------------------------------------------------------------------------------------|
----------7------7--------------------------------7------7-----7-------------------------|
-7-7--7-7-7--7-7-7--7--5-5-5-5-10-10-12-12------7-7--7-7-7-7-7-7-5/12-12-12-12-12-10-12--|
-7-7--7-7----7-7----7--5-5-5-5-10-10-12-12------7----7-7---7-7---5/12-12-12-12-12-10-12--|

verse

[----------------------------------|
[----------------------------------|
[----------------------------------|
[----7------7------7------7--------|
[-7--7-7-7--7--7-7-7-7-7--7--5--0--|
[-7----7-7-----7-7---7-7-----5--0--|
[
[----------------------------------|
[----------------------------------|
[----------------------------------|
[------10------10----10------------|
[------7-------7-----7-------------|
[----------------------------------|


[---------------------------------------------|
[---------------------------------------------|
[---------------------------------------------|
[----7------7------7--------------------------|
[-7--7-7-7--7--7-7-7-7-5-5-5-5-/10-10-12------|
[-7----7-7-----7-7---7-5-5-5-5-/10-10-12------|
[
[---------------------------------------------|
[---------------------------------------------|
[---------------------------------------------|
[------10------10----10-----------------------|
[------7-------7-----7------------------------|
[---------------------------------------------|


[----------------------------------|
[----------------------------------|
[----------------------------------|
[----7------7------7------7--------|
[-7--7-7-7--7--7-7-7-7-7--7--5--0--|
[-7----7-7-----7-7---7-7-----5--0--|
[
[----------------------------------|
[----------------------------------|
[----------------------------------|
[------10------10----10------------|
[------7-------7-----7-------------|
[----------------------------------|


[--------------------------------|
[--------------------------------|
[--------------------------------|
[----7------7------7-------------|
[-7--7-7-7--7--7-7-7-7-5-5-5/12--|
[-7----7-7-----7-7---7-5-5-5/12--|
[
[
[--------------------------------|
[--------------------------------|
[--------------------------------|
[------10------10----10----------|
[------7-------7-----7-----------|
[--------------------------------|


chorus
X2
----------------------------------------------------------------------------------------|
----------------------------------------------------------------------------------------|
----------------------------------------------------------------------------------------|
----------------------------------------------------------------------------------------|
-7-7-10-7-7-10-7-7-10-5-5-5-5-10-10-12-12-7-7-10-7-7-10-7-7-10-/12-12-12-12-12-10-12-10-|
-7-7-10-7-7-10-7-7-10-5-5-5-5-10-10-12-12-7-7-10-7-7-10-7-7-10-/12-12-12-12-12-10-12-10-|

verse 2


-----------------------------------------------------------------------------------------|
-----------------------------------------------------------------------------------------|
-----------------------------------------------------------------------------------------|
---7-----7-----7-----7-----7-----7-----7-----7----12-------12-------10-------10----------|
-7-7-7-7-7-7-7-7-7-7-7-7-7-7-7-7-7-7-7-7-7-7-7-12-12-12-12-12-12-10-10-10-10-10--10------|
-7---7-7---7-7---7-7---7-7---7-7---7-7---7-7---12----12-12----12-10----10-10-----10------|


---------------------------------------------------------------|
---------------------------------------------------------------|
---------------------------------------------------------------|
---7-----7-----7-----7----12-------12-------10-------10--------|
-7-7-7-7-7-7-7-7-7-7-7-12-12-12-12-12-12-10-10-10-10-10--10----|
-7---7-7---7-7---7-7---12----12-12----12-10----10-10-----10----|

---------------------------------------------------------------|
---------------------------------------------------------------|
---------------------------------------------------------------|
---7-----7-----7-----7----12-------12-------10-------10--------|
-7-7-7-7-7-7-7-7-7-7-7-12-12-12-12-12-12-10-10-10-10-10--10----|
-7---7-7---7-7---7-7---12----12-12----12-10----10-10-----10----|

--------------------------------------------|
--------------------------------------------|
--------------------------------------------|
---7-----7-----7-----7----12-------12-------|
-7-7-7-7-7-7-7-7-7-7-7-12-12-12-12-12-12-10-|
-7---7-7---7-7---7-7---12----12-12----12-10-|

chorus x4
-------------------------|
-------------------------|
-------------------------|
---7-----7-----7-----7---|
-7-7-7-7-7-7-7-7-7-7-7-7-|
-7---7-7---7-7---7-7---7-|

solo backing

---------|
---------|
---------|
---------|
-5-7-----|
-5-7-----|

solo

------------------------------------------------------|
------------------------------------------------------|
------------------------------------------------------|
-17-------------------17------------------------------|
----15-15-15-15-15h17----15-15-15-15-15h17-14p0-14p0--|
------------------------------------------------------|

pre interlude


-----------------------------------|
-----------------------------------|
-----------------------------------|
-----------------------------------|
-7-7-7-7-10-10-10-10-12-12-12-12---|
-7-7-7-7-10-10-10-10-12-12-12-12---|

interlude (heavy chorus)

-----------------------------------------------------------------------------------|
-----------------------------------------------------------------------------------|
-----------------------------------------------------------------------------------|
-----7-----7-----7-------------------------7-----7---------------------------------|
-7-7-7-7-7-7-7-7-7-5-5-5-5-10-10-12-12-7-7-7-7-7-7-7-7-10-/12-12-12-12-12-10-12-10-|
-7-7-7-7-7-7-7-7-7-5-5-5-5-10-10-12-12-7-7-7-7-7-7-7-7-10-/12-12-12-12-12-10-12-10-|

chorus again

solo guitar over last chorus
-----------------------------------------------|
-----------------------------------------------|
-----------------------------------------------|
-----------------------------------------------|
-14h15-14p0-14h15-14p0-14h15-14p0--14h15 14p0--|
-----------------------------------------------|

outro

---------------|
---------------|
---------------|
---------------|
---------5-7---|
-12t-10t-5-7---|

leave your comments and corrections below and I'll fix them as i can and remember to rate!
Добавлено: 30.03.2014
Другие материалы по этой песне:

Страница создана 30.03.2014
http://primanota.ru/chevelle/take-out-gunman-chords.htm
Привет, Гость.
Предлагаем пройти революционный курс по гитаре.
Подарок от PrimaNota.Ru, забирай!