PrimaNota.ru - самый крупный в мире бесплатный архив песенных текстов, аккордов, табулатур и нот


Chevelle - Prove To You - аккорды и текст, таба, бас-таба, видео

Регистрация Запомнить меня
Войти через:  Facebook Google Twitter Vk Yandex Mail.ru

Chevelle - Prove To You - аккорды и текст, таба, бас-таба, видео

Печатать
Просмотров: 219
Уроки эстрадного вокала в Санкт-Петербурге
Авторы музыки: Chevelle
Авторы текста: Pete Loeffler
Prove To You
Chevelle
Group: Chevelle
Album: Point#1
Song: Prove To You
Tabbed by: Steven Carey (aakornnut999@excite.com)

Dropped D Tuning

Intro/Interlude:
(distortion/chorus)
e:-----------------------------------------------------------------
B:-----------------------------------------------------------------
G:--10 10 10 10 10 10-9999-777777-10 10 10 10 10 10-555555---------
D:---------------------------------------------------------555555--
A:---8--8--8--8--8--8-7777-555555--8--8--8--8--8--8-333333---------
D:---0--0--0--0--0--0--------------0--0--0--0--0--0--------555555--

Chorus:
e:------------------------
B:------------------------
G:------------------------
D:--0-00-3-3-3-3-3-3-3h4-- x3 then D:--0-00-3-3-3-3--------------
A:--0-00-3-3-3-3-3-3-3h4--         A:--0-00-3-3-3-3----- 4>------
D:--0-00-3-3-3-3-3-3-3h4--         D:--0-00-3-3-3-3- 3>----- 4>--
    /   \
    muted

Verse:
D:--0-00-3-3-3-3-3-3-3h4p3-0-00-0-0-0-0-0-0h4--
A:--0-00-3-3-3-3-3-3-3h4p3-0-00-0-0-0-0-0-0h4--
D:--0-00-3-3-3-3-3-3-3h4p3-0-00-0-0-0-0-0-0h4--

Bridge:
D:--00-333333-xxx-xxxxxxxx--
A:--00-333333-xxx-xxxxxxxx--
D:--00-333333-xxx-xxxxxxxx--
                  ********pick scrape some here
     
Добавлено: 29.10.2013
Другие материалы по этой песне:

Страница создана 03.03.2012
http://primanota.ru/chevelle/prove-to-you-chords.htm
Привет, Гость.
Предлагаем пройти революционный курс по гитаре.
Подарок от PrimaNota.Ru, забирай!