PrimaNota.ru - самый крупный в мире бесплатный архив песенных текстов, аккордов, табулатур и нот


Chevelle - Peer - текст песни, таба, бас-таба, видео

Регистрация Запомнить меня
Войти через:  Facebook Google Twitter Vk Yandex Mail.ru

Chevelle - Peer - текст песни, таба, бас-таба, видео

Печатать
Просмотров: 183
-----------------------------------------------------------------------------
                             Peer - Chevelle
-----------------------------------------------------------------------------
Tabbed by: Ahrum
Email: TheMoogleDance@hotmail.com

Tuning: Drop D

I just found out that the majority of this CD was done in Standard tuning, Drop D or D
so I looked at the tab for Point #1 (CD) and saw that Peer was kinda short and off, so
decided to try and tab it out myself.  He was right in certain spots, though, and I 
think my tab is 100% accurate, so please correct me where you see fit! (This is my 3rd
Chevelle song [Open/Point #1 being #1 and Roswell's Spell being #2])

Oh, second note, the strumming is really hard to figure out, and it'd take an incredibly
time to tab correctly, so I'm going to do the basics.

Verse
e|------------------------------------|
B|------------------------------------|
G|---3-333--3-3-------------2-2-2-3---|
D|---5---5-x5-5-5h8-8-8-3---3-3-3-5---|
A|---3---3-x3-3-5h8-8-8-3---0-----0---|
D|--------------5h8-8-8-3-------------|

Alternate verse
e|-------------------------------------|
B|---------3---------------------------|
G|------3--7--3-------------2-2-2-3----|
D|---5--5--5--5-5h8-8-8-3---3-3-3-5----|
A|---3--------3-5h8-8-8-3---0-----0----|
D|--------------5h8-8-8-3--------------|

Back off, peer
e|-----------------------------------------|
B|-----------------------------------------|
G|-----------------------------------------|
D|--7-7-0---0-0-0-0h3-33333333/555565-5h7--|
A|--7-7-0---0-0-0-0h3-33333333/555565-5h7--|
D|--7-7-0---0-0-0-0h3-33333333/555565-5h7--| x8  (On the 5th time thru, distortion kicks
at the first open strum)

e|---------------------|
B|---------------------|
G|---------------------|
D|--33333h555-5-56530--|
A|--33333h555-5-56530--|
D|--33333h555-5-56530--| x4

e|---------------------|
B|---------------------|
G|---------------------|
D|--333333555555--00---|
A|--333333555555--00---|
D|--3333335555555600---| x4
    ************  ** PM

Main Ear Rending Riff
e|---------------------|
B|---------------------|
G|---------------------|
D|--6503003003003555---|
A|--6503003003003555---|
D|--6503003003003555---| x4

e|--------------------|---5---|
B|--------------------|---5---|
G|--------------------|-------|
D|--665553--0-3-3-0---|-------|
A|--665553--0-3-3-0---|-------|
D|--665553--0-3-3-0---|-------| x4 (not the harmonics, that's the ending)
    ******  * * *    PM   +

e|---------------------|
B|---------------------|
G|---------------------|
D|--6503003003003555---|
A|--6503003003003555---|
D|--6503003003003555---| x4

  Another 7th harmonic 4th time thru
Fill    ^
e|--7777-77--------|
B|--7777-77--------|
G|--7777-77--------|
D|------------5----|
A|---------55-5-5--|
D|---------55---5--| x4
    ++++ ++++ + +

e|---------------------|
B|---------------------|
G|---------------------|
D|--6503003003003555---|
A|--6503003003003555---|
D|--6503003003003555---| x4

Last riff!
e|--------------------|
B|----------------3---|
G|----------------2---|
D|--665553--0-3-3-0---|
A|--665553--0-3-3-0---|
D|--665553--0-3-3-0---|
    ******  * * *

| /  slide up
| \  slide down
| h  hammer-on
| p  pull-off
| ~  vibrato
| +  harmonic
| x  Mute note
=============================================================================
Добавлено: 20.05.2012
Другие материалы по этой песне:
  • Аккорды и текст

Страница создана 20.05.2012
http://primanota.ru/chevelle/peer-chords.htm
Привет, Гость.
Предлагаем пройти революционный курс по гитаре.
Подарок от PrimaNota.Ru, забирай!