PrimaNota.ru - самый крупный в мире бесплатный архив песенных текстов, аккордов, табулатур и нот


Chevelle - Fell Into Your Shoes - текст песни, таба, видео

Регистрация Запомнить меня
Войти через:  Facebook Google Twitter Vk Yandex Mail.ru

Chevelle - Fell Into Your Shoes - текст песни, таба, видео

Печатать
Просмотров: 117
Artist: Chevelle
Song: Fell into your shoes
Album: Scifi Crimes
Label: Epic
Tabber: MetalSlayer09
E-mail: 09bpott@gmail.com


tuning: drop d (Dadgbe)

	intro

pick scrapes then...

e---------------------------------------------------------------------|
b---------------------------------------------------------------------|
g---------------------------------------------------------------------|
d---------------------------------------------------------------------|
a---------------------------------------------------------------------|
D-0-0-0-0-12-0-0-0--0-0-0-12-0-0-0--0-0-0-0-12-0-0-0--0-0-0-12-0-0-0--|

e---------------------------------------------------------------------|
b---------------------------------------------------------------------|
g---------------------------------------------------------------------|
d---------------------------------------------------------------------|
a---------------------------------------------------------------------|
D-0-0-0-0-12-0-0-0--0-0-0-12-0-0-0--0-0-0-0-12-0-0-0--0-0-0-12-0-0-0--|

e----------------------------------[
b----------------------------------[
g----------------------------------[
d----------------------------------[
a----------------------------------[
D-0-0-0-0-12-0-0-0--0-0-0-12-0-0-0-[

verse

    somehow           we're        sent     by        fools
e[--------------------------------------------------------------------------[
b[--------------------------------------------------------------------------[
g[--------------------------------------------------------------------------[
d[-12-12-12-12-12-12-12-12-9-9-9-9-9-9-9-9-4-4-4-4-4-4-4-4-4-4-4-4-4-4-4-4--[
a[-12-12-12-12-12-12-12-12-9-9-9-9-9-9-9-9-4-4-4-4-4-4-4-4-4-4-4-4-4-4-4-4--[
D[-12-12-12-12-12-12-12-12-9-9-9-9-9-9-9-9-4-4-4-4-4-4-4-4-4-4-4-4-4-4-4-4--[
 [									    [
e[--------------------------------------------------------------------------[
b[-17-17-17-17-17-17-17-17-17-17-17-14-14-14-14-14-14-14-14-14-14-14-14-14--[
g[--------------------------------------------------------------------------[
d[--------------------------------------------------------------------------[
a[--------------------------------------------------------------------------[
D[--------------------------------------------------------------------------[

    no           better            when     we're    lost
e[--------------------------------------------------------------------------[
b[--------------------------------------------------------------------------[
g[--------------------------------------------------------------------------[
d[-12-12-12-12-12-12-12-12-9-9-9-9-9-9-9-9-4-4-4-4-4-4-4-4-4-4-4-4-4-4-4-4--[
a[-12-12-12-12-12-12-12-12-9-9-9-9-9-9-9-9-4-4-4-4-4-4-4-4-4-4-4-4-4-4-4-4--[
D[-12-12-12-12-12-12-12-12-9-9-9-9-9-9-9-9-4-4-4-4-4-4-4-4-4-4-4-4-4-4-4-4--[
 [									    [
e[--------------------------------------------------------------------------[
b[-17-17-17-17-17-17-17-17-17-17-17-14-14-14-14-14-14-14-14-14-14-14-14-14--[
g[--------------------------------------------------------------------------[
d[--------------------------------------------------------------------------[
a[--------------------------------------------------------------------------[
D[--------------------------------------------------------------------------[

    i            fell into your shoes                     but only one
e[--------------------------------------------------------------------------[
b[--------------------------------------------------------------------------[
g[--------------------------------------------------------------------------[
d[-12-12-12-12-12-12-12-12-9-9-9-9-9-9-9-9-4-4-4-4-4-4-4-4-4-4-4-4-4-4-4-4--[
a[-12-12-12-12-12-12-12-12-9-9-9-9-9-9-9-9-4-4-4-4-4-4-4-4-4-4-4-4-4-4-4-4--[
D[-12-12-12-12-12-12-12-12-9-9-9-9-9-9-9-9-4-4-4-4-4-4-4-4-4-4-4-4-4-4-4-4--[
 [									    [
e[--------------------------------------------------------------------------[
b[-17-17-17-17-17-17-17-17-17-17-17-14-14-14-14-14-14-14-14-14-14-14-14-14--[
g[--------------------------------------------------------------------------[
d[--------------------------------------------------------------------------[
a[--------------------------------------------------------------------------[
D[--------------------------------------------------------------------------[




prechorus


hoping to be shown a leaner curfew
e------------------------------------------------------------------|
b------------------------------------------------------------------|
g-4-4-4-4-4-4-4-4-4-4-4-4-4-4-4-4-7-7-7-7-7-7-7-7-9-9-9-9-9-9-9-9--|
d------------------------------------------------------------------|
a-2-2-2-2-2-2-2-2-2-2-2-2-2-2-2-2-5-5-5-5-5-5-5-5-7-7-7-7-7-7-7-7--|
D------------------------------------------------------------------|

hopeful senseless sins  gathering clues
e------------------------------------------------------------------|
b------------------------------------------------------------------|
g-4-4-4-4-4-4-4-4-4-4-4-4-4-4-4-4-7-7-7-7-7-7-7-7-9-9-9-9-9-9-9-9--|
d------------------------------------------------------------------|
a-2-2-2-2-2-2-2-2-2-2-2-2-2-2-2-2-5-5-5-5-5-5-5-5-7-7-7-7-7-7-7-7--|
D------------------------------------------------------------------|

weaving into
[---------------------------------|
[---------------------------------|
[---------------------------------|
[-2-0-8-7-10-9-7-9-10-9-7-9---0-7-|
[-2-0-8-7-10-9-7-9-10-9-7-9---0-7-|
[-2-0-8-7-10-9-7-9-10-9-7-9---0-7-|

feeing off the youth
[---------------------------------|
[---------------------------------|
[---------------------------------|
[-2-0-8-7-10-9-7-9-10-9-7-9---0-7-|
[-2-0-8-7-10-9-7-9-10-9-7-9---0-7-|
[-2-0-8-7-10-9-7-9-10-9-7-9---0-7-|

e---------------------------------------------------------------------|
b---------------------------------------------------------------------|
g---------------------------------------------------------------------|
d---------------------------------------------------------------------|
a---------------------------------------------------------------------|
D-0-0-0-0-12-0-0-0--0-0-0-12-0-0-0--0-0-0-0-12-0-0-0--0-0-0-12-0-0-0--|

e---------------------------------------------------------------------|
b---------------------------------------------------------------------|
g---------------------------------------------------------------------|
d---------------------------------------------------------------------|
a---------------------------------------------------------------------|
D-0-0-0-0-12-0-0-0--0-0-0-12-0-0-0--0-0-0-0-12-0-0-0--0-0-0-12-0-0-0--|

chorus

  somehow           we're        sent     by        fools
e[--------------------------------------------------------------------------[
b[--------------------------------------------------------------------------[
g[--------------------------------------------------------------------------[
d[-12-12-12-12-12-12-12-12-9-9-9-9-9-9-9-9-4-4-4-4-4-4-4-4-4-4-4-4-4-4-4-4--[
a[-12-12-12-12-12-12-12-12-9-9-9-9-9-9-9-9-4-4-4-4-4-4-4-4-4-4-4-4-4-4-4-4--[
D[-12-12-12-12-12-12-12-12-9-9-9-9-9-9-9-9-4-4-4-4-4-4-4-4-4-4-4-4-4-4-4-4--[
 [									    [
e[--------------------------------------------------------------------------[
b[-17-17-17-17-17-17-17-17-17-17-17-14-14-14-14-14-14-14-14-14-14-14-14-14--[
g[--------------------------------------------------------------------------[
d[--------------------------------------------------------------------------[
a[--------------------------------------------------------------------------[
D[--------------------------------------------------------------------------[

    no           better            when     we're    lost
e[--------------------------------------------------------------------------[
b[--------------------------------------------------------------------------[
g[--------------------------------------------------------------------------[
d[-12-12-12-12-12-12-12-12-9-9-9-9-9-9-9-9-4-4-4-4-4-4-4-4-4-4-4-4-4-4-4-4--[
a[-12-12-12-12-12-12-12-12-9-9-9-9-9-9-9-9-4-4-4-4-4-4-4-4-4-4-4-4-4-4-4-4--[
D[-12-12-12-12-12-12-12-12-9-9-9-9-9-9-9-9-4-4-4-4-4-4-4-4-4-4-4-4-4-4-4-4--[
 [									    [
e[--------------------------------------------------------------------------[
b[-17-17-17-17-17-17-17-17-17-17-17-14-14-14-14-14-14-14-14-14-14-14-14-14--[
g[--------------------------------------------------------------------------[
d[--------------------------------------------------------------------------[
a[--------------------------------------------------------------------------[
D[--------------------------------------------------------------------------[

    i            fell into your shoes                     but only one
e[--------------------------------------------------------------------------[
b[--------------------------------------------------------------------------[
g[--------------------------------------------------------------------------[
d[-12-12-12-12-12-12-12-12-9-9-9-9-9-9-9-9-4-4-4-4-4-4-4-4-4-4-4-4-4-4-4-4--[
a[-12-12-12-12-12-12-12-12-9-9-9-9-9-9-9-9-4-4-4-4-4-4-4-4-4-4-4-4-4-4-4-4--[
D[-12-12-12-12-12-12-12-12-9-9-9-9-9-9-9-9-4-4-4-4-4-4-4-4-4-4-4-4-4-4-4-4--[
 [									    [
e[--------------------------------------------------------------------------[
b[-17-17-17-17-17-17-17-17-17-17-17-14-14-14-14-14-14-14-14-14-14-14-14-14--[
g[--------------------------------------------------------------------------[
d[--------------------------------------------------------------------------[
a[--------------------------------------------------------------------------[
D[--------------------------------------------------------------------------[


prechorus


the skies are overwlemed another teacher
e------------------------------------------------------------------|
b------------------------------------------------------------------|
g-4-4-4-4-4-4-4-4-4-4-4-4-4-4-4-4-7-7-7-7-7-7-7-7-9-9-9-9-9-9-9-9--|
d------------------------------------------------------------------|
a-2-2-2-2-2-2-2-2-2-2-2-2-2-2-2-2-5-5-5-5-5-5-5-5-7-7-7-7-7-7-7-7--|
D------------------------------------------------------------------|

heads for higher ground gathering clues
e------------------------------------------------------------------|
b------------------------------------------------------------------|
g-4-4-4-4-4-4-4-4-4-4-4-4-4-4-4-4-7-7-7-7-7-7-7-7-9-9-9-9-9-9-9-9--|
d------------------------------------------------------------------|
a-2-2-2-2-2-2-2-2-2-2-2-2-2-2-2-2-5-5-5-5-5-5-5-5-7-7-7-7-7-7-7-7--|
D------------------------------------------------------------------|

weaving into
[---------------------------------|
[---------------------------------|
[---------------------------------|
[-2-0-8-7-10-9-7-9-10-9-7-9---0-7-|
[-2-0-8-7-10-9-7-9-10-9-7-9---0-7-|
[-2-0-8-7-10-9-7-9-10-9-7-9---0-7-|

feeing off the youth
[---------------------------------|
[---------------------------------|
[---------------------------------|
[-2-0-8-7-10-9-7-9-10-9-7-9---0-7-|
[-2-0-8-7-10-9-7-9-10-9-7-9---0-7-|
[-2-0-8-7-10-9-7-9-10-9-7-9---0-7-|

e---------------------------------------------------------------------|
b---------------------------------------------------------------------|
g---------------------------------------------------------------------|
d---------------------------------------------------------------------|
a---------------------------------------------------------------------|
D-0-0-0-0-12-0-0-0--0-0-0-12-0-0-0--0-0-0-0-12-0-0-0--0-0-0-12-0-0-0--|

e---------------------------------------------------------------------|
b---------------------------------------------------------------------|
g---------------------------------------------------------------------|
d---------------------------------------------------------------------|
a---------------------------------------------------------------------|
D-0-0-0-0-12-0-0-0--0-0-0-12-0-0-0--0-0-0-0-12-0-0-0--0-0-0-12-0-0-0--|


solo

e--------------------------------------------------------------------------------[
b-17T-15T-14T-10T-7Tb-12T-10T-8-7-8-7-8-7------------------------------------7Tb-[
g-----------------------------------------7-6-6-7-9-10-9-7-6-7-6-7-6-7-6-7-6-----[
d--------------------------------------------------------------------------------[
a--------------------------------------------------------------------------------[
D--------------------------------------------------------------------------------[

e----------------------------------------[
b-7Tb-7Tb-12T-10T-8-7-8-7-8-7------------[
g-----------------------------7-6b-6b-6b-[
d----------------------------------------[
a----------------------------------------[
D----------------------------------------[


prechorus


closing chapters tell all a new virtue
e[------------------------------------------------------------------|
b[------------------------------------------------------------------|
g[-4-4-4-4-4-4-4-4-4-4-4-4-4-4-4-4-7-7-7-7-7-7-7-7-9-9-9-9-9-9-9-9--|
d[------------------------------------------------------------------|
a[-2-2-2-2-2-2-2-2-2-2-2-2-2-2-2-2-5-5-5-5-5-5-5-5-7-7-7-7-7-7-7-7--|
D[------------------------------------------------------------------|
 [
e[------------------------------------------------------------------[
b[------------------------------------------------------------------[
g[-5b------------------------------7b--------------9b---------------[
d[------------------------------------------------------------------[
a[------------------------------------------------------------------[
D[------------------------------------------------------------------[

pay for healing hands as eyes go hallow
e[------------------------------------------------------------------|
b[------------------------------------------------------------------|
g[-4-4-4-4-4-4-4-4-4-4-4-4-4-4-4-4-7-7-7-7-7-7-7-7-9-9-9-9-9-9-9-9--|
d[------------------------------------------------------------------|
a[-2-2-2-2-2-2-2-2-2-2-2-2-2-2-2-2-5-5-5-5-5-5-5-5-7-7-7-7-7-7-7-7--|
D[------------------------------------------------------------------|
 [
e[------------------------------------------------------------------[
b[------------------------------------------------------------------[
g[-5b------------------------------7b--------------9b---------------[
d[------------------------------------------------------------------[
a[------------------------------------------------------------------[
D[------------------------------------------------------------------[

weaving into
[---------------------------------|
[---------------------------------|
[---------------------------------|
[-2-0-8-7-10-9-7-9-10-9-7-9---0-7-|
[-2-0-8-7-10-9-7-9-10-9-7-9---0-7-|
[-2-0-8-7-10-9-7-9-10-9-7-9---0-7-|

we bring this to
[---------------------------------|
[---------------------------------|
[---------------------------------|
[-2-0-8-7-10-9-7-9-10-9-7-9---0-7-|
[-2-0-8-7-10-9-7-9-10-9-7-9---0-7-|
[-2-0-8-7-10-9-7-9-10-9-7-9---0-7-|


[---------------------------------|
[---------------------------------|
[---------------------------------|
[-2-0-8-7-10-9-7-9-10-9-7-9---0-7-|
[-2-0-8-7-10-9-7-9-10-9-7-9---0-7-|
[-2-0-8-7-10-9-7-9-10-9-7-9---0-7-|


[---------------------------------|
[---------------------------------|
[---------------------------------|
[-2-0-8-7-10-9-7-9-10-9-7-9---0-7-|
[-2-0-8-7-10-9-7-9-10-9-7-9---0-7-|
[-2-0-8-7-10-9-7-9-10-9-7-9---0-7-|

chorus

  somehow           we're        sent     by        fools
e[--------------------------------------------------------------------------[
b[--------------------------------------------------------------------------[
g[--------------------------------------------------------------------------[
d[-12-12-12-12-12-12-12-12-9-9-9-9-9-9-9-9-4-4-4-4-4-4-4-4-4-4-4-4-4-4-4-4--[
a[-12-12-12-12-12-12-12-12-9-9-9-9-9-9-9-9-4-4-4-4-4-4-4-4-4-4-4-4-4-4-4-4--[
D[-12-12-12-12-12-12-12-12-9-9-9-9-9-9-9-9-4-4-4-4-4-4-4-4-4-4-4-4-4-4-4-4--[
 [									    [
e[--------------------------------------------------------------------------[
b[-17-17-17-17-17-17-17-17-17-17-17-14-14-14-14-14-14-14-14-14-14-14-14-14--[
g[--------------------------------------------------------------------------[
d[--------------------------------------------------------------------------[
a[--------------------------------------------------------------------------[
D[--------------------------------------------------------------------------[

    no           better            when     we're    lost
e[--------------------------------------------------------------------------[
b[--------------------------------------------------------------------------[
g[--------------------------------------------------------------------------[
d[-12-12-12-12-12-12-12-12-9-9-9-9-9-9-9-9-4-4-4-4-4-4-4-4-4-4-4-4-4-4-4-4--[
a[-12-12-12-12-12-12-12-12-9-9-9-9-9-9-9-9-4-4-4-4-4-4-4-4-4-4-4-4-4-4-4-4--[
D[-12-12-12-12-12-12-12-12-9-9-9-9-9-9-9-9-4-4-4-4-4-4-4-4-4-4-4-4-4-4-4-4--[
 [									    [
e[--------------------------------------------------------------------------[
b[-17-17-17-17-17-17-17-17-17-17-17-14-14-14-14-14-14-14-14-14-14-14-14-14--[
g[--------------------------------------------------------------------------[
d[--------------------------------------------------------------------------[
a[--------------------------------------------------------------------------[
D[--------------------------------------------------------------------------[

    i            fell into your shoes                     but only one
e[--------------------------------------------------------------------------[
b[--------------------------------------------------------------------------[
g[--------------------------------------------------------------------------[
d[-12-12-12-12-12-12-12-12-9-9-9-9-9-9-9-9-4-4-4-4-4-4-4-4-4-4-4-4-4-4-4-4--[
a[-12-12-12-12-12-12-12-12-9-9-9-9-9-9-9-9-4-4-4-4-4-4-4-4-4-4-4-4-4-4-4-4--[
D[-12-12-12-12-12-12-12-12-9-9-9-9-9-9-9-9-4-4-4-4-4-4-4-4-4-4-4-4-4-4-4-4--[
 [									    [
e[--------------------------------------------------------------------------[
b[-17-17-17-17-17-17-17-17-17-17-17-14-14-14-14-14-14-14-14-14-14-14-14-14--[
g[--------------------------------------------------------------------------[
d[--------------------------------------------------------------------------[
a[--------------------------------------------------------------------------[
D[--------------------------------------------------------------------------[

  somehow           we're        sent     by        fools
e[--------------------------------------------------------------------------[
b[--------------------------------------------------------------------------[
g[--------------------------------------------------------------------------[
d[-12-12-12-12-12-12-12-12-9-9-9-9-9-9-9-9-4-4-4-4-4-4-4-4-4-4-4-4-4-4-4-4--[
a[-12-12-12-12-12-12-12-12-9-9-9-9-9-9-9-9-4-4-4-4-4-4-4-4-4-4-4-4-4-4-4-4--[
D[-12-12-12-12-12-12-12-12-9-9-9-9-9-9-9-9-4-4-4-4-4-4-4-4-4-4-4-4-4-4-4-4--[
 [									    [
e[--------------------------------------------------------------------------[
b[-17-17-17-17-17-17-17-17-17-17-17-14-14-14-14-14-14-14-14-14-14-14-14-14--[
g[--------------------------------------------------------------------------[
d[--------------------------------------------------------------------------[
a[--------------------------------------------------------------------------[
D[--------------------------------------------------------------------------[

    no           better            when     we're    lost
e[--------------------------------------------------------------------------[
b[--------------------------------------------------------------------------[
g[--------------------------------------------------------------------------[
d[-12-12-12-12-12-12-12-12-9-9-9-9-9-9-9-9-4-4-4-4-4-4-4-4-4-4-4-4-4-4-4-4--[
a[-12-12-12-12-12-12-12-12-9-9-9-9-9-9-9-9-4-4-4-4-4-4-4-4-4-4-4-4-4-4-4-4--[
D[-12-12-12-12-12-12-12-12-9-9-9-9-9-9-9-9-4-4-4-4-4-4-4-4-4-4-4-4-4-4-4-4--[
 [									    [
e[--------------------------------------------------------------------------[
b[-17-17-17-17-17-17-17-17-17-17-17-14-14-14-14-14-14-14-14-14-14-14-14-14--[
g[--------------------------------------------------------------------------[
d[--------------------------------------------------------------------------[
a[--------------------------------------------------------------------------[
D[--------------------------------------------------------------------------[

    i            fell into your shoes                     but only one
e[--------------------------------------------------------------------------[
b[--------------------------------------------------------------------------[
g[--------------------------------------------------------------------------[
d[-12-12-12-12-12-12-12-12-9-9-9-9-9-9-9-9-4-4-4-4-4-4-4-4-4-4-4-4-4-4-4-4--[
a[-12-12-12-12-12-12-12-12-9-9-9-9-9-9-9-9-4-4-4-4-4-4-4-4-4-4-4-4-4-4-4-4--[
D[-12-12-12-12-12-12-12-12-9-9-9-9-9-9-9-9-4-4-4-4-4-4-4-4-4-4-4-4-4-4-4-4--[
 [									    [
e[--------------------------------------------------------------------------[
b[-17-17-17-17-17-17-17-17-17-17-17-14-14-14-14-14-14-14-14-14-14-14-14-14--[
g[--------------------------------------------------------------------------[
d[--------------------------------------------------------------------------[
a[--------------------------------------------------------------------------[
D[--------------------------------------------------------------------------[


e[--------------------------------------------------------------------------[
b[--------------------------------------------------------------------------[
g[--------------------------------------------------------------------------[
d[-12-12-12-12-12-12-12-12-9-9-9-9-9-9-9-9-4-4-4-4-4-4-4-4-4-4-4-4-4-4-4-4--[
a[-12-12-12-12-12-12-12-12-9-9-9-9-9-9-9-9-4-4-4-4-4-4-4-4-4-4-4-4-4-4-4-4--[
D[-12-12-12-12-12-12-12-12-9-9-9-9-9-9-9-9-4-4-4-4-4-4-4-4-4-4-4-4-4-4-4-4--[
 [									    [
e[--------------------------------------------------------------------------[
b[-17-17-17-17-17-17-17-17-17-17-17-14-14-14-14-14-14-14-14-14-14-14-14-14--[
g[--------------------------------------------------------------------------[
d[--------------------------------------------------------------------------[
a[--------------------------------------------------------------------------[
D[--------------------------------------------------------------------------[
 [									    [
e[--------------------------------------------------------------------------[
b[--------------------------------------------------------------------------[
g[----9b----------------------9b-----------------------6--------------------[
d[--------------------------------------------------------------------------[
a[--------------------------------------------------------------------------[
D[--------------------------------------------------------------------------[

e[--------------------------------------------------------------------------[
b[--------------------------------------------------------------------------[
g[--------------------------------------------------------------------------[
d[-12-12-12-12-12-12-12-12-9-9-9-9-9-9-9-9-4-4-4-4-4-4-4-4-4-4-4-4-4-4-4-4--[
a[-12-12-12-12-12-12-12-12-9-9-9-9-9-9-9-9-4-4-4-4-4-4-4-4-4-4-4-4-4-4-4-4--[
D[-12-12-12-12-12-12-12-12-9-9-9-9-9-9-9-9-4-4-4-4-4-4-4-4-4-4-4-4-4-4-4-4--[
 [									    [
e[--------------------------------------------------------------------------[
b[-17-17-17-17-17-17-17-17-17-17-17-14-14-14-14-14-14-14-14-14-14-14-14-14--[
g[--------------------------------------------------------------------------[
d[--------------------------------------------------------------------------[
a[--------------------------------------------------------------------------[
D[--------------------------------------------------------------------------[
 [									    [
e[--------------------------------------------------------------------------[
b[--------------------------------------------------------------------------[
g[----9b----------------------9b-----------------------6--------------------[
d[--------------------------------------------------------------------------[
a[--------------------------------------------------------------------------[
D[--------------------------------------------------------------------------[

e[--------------------------------------------------------------------------[
b[--------------------------------------------------------------------------[
g[--------------------------------------------------------------------------[
d[-12-12-12-12-12-12-12-12-9-9-9-9-9-9-9-9-4-4-4-4-4-4-4-4-4-4-4-4-4-4-4-4--[
a[-12-12-12-12-12-12-12-12-9-9-9-9-9-9-9-9-4-4-4-4-4-4-4-4-4-4-4-4-4-4-4-4--[
D[-12-12-12-12-12-12-12-12-9-9-9-9-9-9-9-9-4-4-4-4-4-4-4-4-4-4-4-4-4-4-4-4--[
 [									    [
e[--------------------------------------------------------------------------[
b[-17-17-17-17-17-17-17-17-17-17-17-14-14-14-14-14-14-14-14-14-14-14-14-14--[
g[--------------------------------------------------------------------------[
d[--------------------------------------------------------------------------[
a[--------------------------------------------------------------------------[
D[--------------------------------------------------------------------------[
 [									    [
e[--------------------------------------------------------------------------[
b[--------------------------------------------------------------------------[
g[----9b----------------------9b-----------------------6--------------------[
d[--------------------------------------------------------------------------[
a[--------------------------------------------------------------------------[
D[--------------------------------------------------------------------------[
Добавлено: 10.03.2012
Другие материалы по этой песне:

Страница создана 10.03.2012
http://primanota.ru/chevelle/fell-into-your-shoes-chords.htm
Привет, Гость.
Предлагаем пройти революционный курс по гитаре.
Подарок от PrimaNota.Ru, забирай!