PrimaNota.ru - самый крупный в мире бесплатный архив песенных текстов, аккордов, табулатур и нот


Chevelle - Confortable Liar - таба, видео

Регистрация Запомнить меня
Войти через:  Facebook Google Twitter Vk Yandex Mail.ru

Chevelle - Confortable Liar - таба, видео

Печатать
Просмотров: 104
Tabbed by: Shayde

I wanted to make a version that any new
guitar player could pick up their guitar
 and learn it...Listen to it for the
pick scrapes...cuz I
don't have enough time...

Main riff
E||-------------------------------------|
B||-------------------------------------|
G||-------------------------------------|
D||-4-0-444-0-0-------------------------|
A||-4-0-444-0-0-last time let ring out--|
D||-4-0-444-0-0-------------------------|

The hear your fear part is just switching
back and forth between these two
E||------------------|
B||------------------|
G||------------------|
D||--4-------0-------|
A||--4--and--0-------|
D||--4-------0-------|

then it goes back to the main riff

the second time it does the hear your
fear part the guitar part goes like this
E||----------------------------------------|
B||----------------------------------------|
G||----------------------------------------|
D||-0-00-0-00-0-00-0-00-0-00-0-00-0-00-0---|
A||-0-00-0-00-0-00-0-00-0-00-0-00-0-00-0---|
D||-0-00-0-00-0-00-0-00-0-00-0-00-0-00-0---|
pm----**---**---**---**---**---**---**-----|
         -Then switches to the 4's-
E||----------------------------------------|
B||----------------------------------------|
G||----------------------------------------|
D||-4-44-4-44-4-44-4-44-4-44-4-44-4-44-4---|
A||-4-44-4-44-4-44-4-44-4-44-4-44-4-44-4---|
D||-4-44-4-44-4-44-4-44-4-44-4-44-4-44-4---|
pm----**---**---**---**---**---**---**-----|
         -Then it goes back to the 0's-

then it goes back to the part where
you switch between these two
E||------------------|
B||------------------|
G||------------------|
D||--4-------0-------|
A||--4--and--0-------|
D||--4-------0-------|

Silence...

Then Back to the main riff until song is over

I tried to make it all print out on one page cuz it always pisses me off having to print 
sheets of paper to learn 1 song...
Добавлено: 10.07.2013
Другие материалы по этой песне:
  • Аккорды и текст

Страница создана 10.07.2013
http://primanota.ru/chevelle/confortable-liar-chords.htm
Привет, Гость.
Предлагаем пройти революционный курс по гитаре.
Подарок от PrimaNota.Ru, забирай!