PrimaNota.ru - самый крупный в мире бесплатный архив песенных текстов, аккордов, табулатур и нот


Chevelle - Another Know It All - текст песни, таба, бас-таба, видео

Регистрация Запомнить меня
Войти через:  Facebook Google Twitter Vk Yandex Mail.ru

Chevelle - Another Know It All - текст песни, таба, бас-таба, видео

Печатать
Просмотров: 125
Уроки эстрадного вокала в Санкт-Петербурге
-----------------------------------------------------------------------------
			     Another Know It All - Chevelle
-------------------------------------------------------------------------------

Tabbed by:hobb3s

Tuning:Drop B

I learnd this by watching a live performence of chevelle


Intro/Chours X4
C#|--------------------------------------------------------------------------|
G#|--------------------------------------------------------------------------|
E|---77777777----------------------------------------------------------------|
B|---77777777--33333333--55555555--------------------------------------------|
F#|--55555555--33333333--55555555--------------------------------------------|
B|-------------33333333--55555555--------------------------------------------|

I think this might be the part pete plays at the end of the intro
C#|--------------------------------------------------------------------------|
G#|--------------------------------------------------------------------------|
E|---77777777----------------------------------------------------------------|
B|---77777777--3h5-3h5-3h5-3h5-3h5-2222--------------------------------------|
F#|--55555555--3h5-3h5-3h5-3h5-3h5-2222--------------------------------------|
B|-------------3h5-3h5-3h5-3h5-3h5-2222--------------------------------------|

Verse X2
C#|--------------------------------------------------------------------------|
G#|--------------------------------------------------------------------------|
E|---------------------------------------------------------------------------|
B|---0h6p0--0-0h6p0--0-0h6p0--0-0h6p0-0h3p0----------------------------------|
F#|--0h6p0--0-0h6p0--0-0h6p0--0-0h6p0-0h3p0----------------------------------|
B|---0h6p0--0-0h6p0--0-0h6p0--0-0h6p0-0h3p0----------------------------------|


C#|--------------------------------------------------------------------------|
G#|--------------------------------------------------------------------------|
E|----------2~~~~~~~~~~~~~~~-------------2~~~~~~~~~~~~~~~--------------------|
B|----------0~~~~~~~~~~~~~~~-------------0~~~~~~~~~~~~~~~--------------------|
F#|---------0~~~~~~~~~~~~~~~-------------0-~~~~~~~~~~~~~~~-------------------|
B|----------0~~~~~~~~~~~~~~~-------------0-~~~~~~~~~~~~~~~-------------------|

Verse X4
C#|--------------------------------------------------------------------------|
G#|--------------------------------------------------------------------------|
E|---------------------------------------------------------------------------|
B|---0h6p0--0-0h6p0--0-0h6p0--0-0h6p0-0h3p0----------------------------------|
F#|--0h6p0--0-0h6p0--0-0h6p0--0-0h6p0-0h3p0----------------------------------|
B|---0h6p0--0-0h6p0--0-0h6p0--0-0h6p0-0h3p0----------------------------------|

Chours X4
C#|--------------------------------------------------------------------------|
G#|--------------------------------------------------------------------------|
E|---77777777----------------------------------------------------------------|
B|---77777777--33333333--55555555--------------------------------------------|
F#|--55555555--33333333--55555555--------------------------------------------|
B|-------------33333333--55555555--------------------------------------------|


C#|--------------------------------------------------------------------------|
G#|--------------------------------------------------------------------------|
E|---77777777----------------------------------------------------------------|
B|---77777777--33333333--222222----------------------------------------------|
F#|--55555555--33333333--222222----------------------------------------------|
B|-------------33333333--222222----------------------------------------------|


Verse X2
C#|--------------------------------------------------------------------------|
G#|--------------------------------------------------------------------------|
E|---------------------------------------------------------------------------|
B|---0h6p0--0-0h6p0--0-0h6p0--0-0h6p0-0h3p0----------------------------------|
F#|--0h6p0--0-0h6p0--0-0h6p0--0-0h6p0-0h3p0----------------------------------|
B|---0h6p0--0-0h6p0--0-0h6p0--0-0h6p0-0h3p0----------------------------------|

C#|--------------------------------------------------------------------------|
G#|--------------------------------------------------------------------------|
E|----------2~~~~~~~~~~~~~~~-------------2~~~~~~~~~~~~~~~--------------------|
B|----------0~~~~~~~~~~~~~~~-------------0~~~~~~~~~~~~~~~--------------------|
F#|---------0~~~~~~~~~~~~~~~-------------0-~~~~~~~~~~~~~~~-------------------|
B|----------0~~~~~~~~~~~~~~~-------------0-~~~~~~~~~~~~~~~-------------------|

        
Verse X4
C#|--------------------------------------------------------------------------|
G#|--------------------------------------------------------------------------|
E|---------------------------------------------------------------------------|
B|---0h6p0--0-0h6p0--0-0h6p0--0-0h6p0-0h3p0----------------------------------|
F#|--0h6p0--0-0h6p0--0-0h6p0--0-0h6p0-0h3p0----------------------------------|
B|---0h6p0--0-0h6p0--0-0h6p0--0-0h6p0-0h3p0----------------------------------|

Chours X4
C#|--------------------------------------------------------------------------|
G#|--------------------------------------------------------------------------|
E|---77777777----------------------------------------------------------------|
B|---77777777--33333333--55555555--------------------------------------------|
F#|--55555555--33333333--55555555--------------------------------------------|
B|-------------33333333--55555555--------------------------------------------|


C#|--------------------------------------------------------------------------|
G#|--------------------------------------------------------------------------|
E|---77777777----------------------------------------------------------------|
B|---77777777--33333333--222222----------------------------------------------|
F#|--55555555--33333333--222222----------------------------------------------|
B|-------------33333333--222222----------------------------------------------|

Interlude 
C#|--------------------------------------------------------------------------|
G#|--------------------------------------------------------------------------|
E|--------10-10-10-10-------10-10-10-10-9--9--9--9---------------------------|
B|--0000--x--x--x--x--0000--x--x--x--x--x--x--x--x---------------------------|
F#|-0000--8--8--8--8--0000--8--8--8--8--7--7--7--7---------------------------|
B|--0000--------------0000---------------------------------------------------|
    ....              ....         
C#|--------------------------------------------------------------------------|
G#|--------------------------------------------------------------------------|
E|--------10-10-10-10-------10-10-10-10-13-13-13-13--------------------------|
B|--0000--x--x--x--x--0000--x--x--x--x--x--x--x--x---------------------------|
F#|-0000--8--8--8--8--0000--8--8--8--8--11-11-11-11--------------------------|
B|--0000--------------0000---------------------------------------------------|
    ....              ....         
C#|--------------------------------------------------------------------------|
G#|--------------------------------------------------------------------------|
E|--------10-10-10-10-------10-10-10-10-9--9--9--9---------------------------|
B|--0000--x--x--x--x--0000--x--x--x--x--x--x--x--x---------------------------|
F#|-0000--8--8--8--8--0000--8--8--8--8--7--7--7--7---------------------------|
B|--0000--------------0000---------------------------------------------------|
    ....              ....         

C#|--------------------------------------------------------------------------|
G#|--------------------------------------------------------------------------|
E|--------10-10-10-10-------10-10-10-10-13-13-13-13--------------------------|
B|--0000--x--x--x--x--0000--x--x--x--x--x--x--x--x---------------------------|
F#|-0000--8--8--8--8--0000--8--8--8--8--11-11-11-11--------------------------|
B|--0000--------------0000---------------------------------------------------|
    ....              ....         

C#|--------------------------------------------------------------------------|
G#|--------------------------------------------------------------------------|
E|--------10-10-10-10-------10-10-10-10-9--9--9--9---------------------------|
B|--0000--x--x--x--x--0000--x--x--x--x--x--x--x--x---------------------------|
F#|-0000--8--8--8--8--0000--8--8--8--8--7--7--7--7---------------------------|
B|--0000--------------0000---------------------------------------------------|
    ....              ....         
C#|--------------------------------------------------------------------------|
G#|--------------------------------------------------------------------------|
E|--------10-10-10-10-------10-10-10-10-13-13-13-13--------------------------|
B|--0000--x--x--x--x--0000--x--x--x--x--x--x--x--x---------------------------|
F#|-0000--8--8--8--8--0000--8--8--8--8--11-11-11-11--------------------------|
B|--0000--------------0000---------------------------------------------------|
    ....              ....         

C#|--------------------------------------------------------------------------|
G#|--------------------------------------------------------------------------|
E|--------10-10-10-10-10-10-10-10--------------------------------------------|
B|--0000--x--x--x--x--x--x--x--x---33xxxxxxxxxxxxxx-55xxxxxxxxxxxxxx---------|
F#|-0000--8--8--8--8--8--8--8--8---33xxxxxxxxxxxxxx-55xxxxxxxxxxxxxx---------|
B|--0000---------------------------33xxxxxxxxxxxxxx-55xxxxxxxxxxxxxx---------|
    ....                 

Outro X8
C#|--------------------------------------------------------------------------|
G#|--------------------------------------------------------------------------|
E|---77777777----------------------------------------------------------------|
B|---77777777--33333333--55555555--------------------------------------------|
F#|--55555555--33333333--55555555--------------------------------------------|
B|-------------33333333--55555555--------------------------------------------|

C#|--------------------------------------------------------------------------|
G#|--------------------------------------------------------------------------|
E|---77777777----------------------------------------------------------------|
B|---77777777--3h5-3h5-3h5-3h5-3h5-2222--------------------------------------|
F#|--55555555--3h5-3h5-3h5-3h5-3h5-2222--------------------------------------|
B|-------------3h5-3h5-3h5-3h5-3h5-2222--------------------------------------|


C#|--------------------------------------------------------------------------|
G#|--------------------------------------------------------------------------|
E|---------------------------------------------------------------------------|
B|---0h6p0--0-0h6p0--0-0h6p0--0-0h6p0-0h3p0----------------------------------|
F#|--0h6p0--0-0h6p0--0-0h6p0--0-0h6p0-0h3p0----------------------------------|
B|---0h6p0--0-0h6p0--0-0h6p0--0-0h6p0-0h3p0----------------------------------|


C#|--------------------------------------------------------------------------|
G#|--------------------------------------------------------------------------|
E|---------------------------------------------------------------------------|
B|---0h6p0--0-0h6p0--0-0h6p0--0-0h6p0-0h3p0----------------------------------|
F#|--0h6p0--0-0h6p0--0-0h6p0--0-0h6p0-0h3p0----------------------------------|
B|---0h6p0--0-0h6p0--0-0h6p0--0-0h6p0-0h3p0----------------------------------|


C#|--------------------------------------------------------------------------|
G#|--------------------------------------------------------------------------|
E|---------------------------------------------------------------------------|
B|---0h6p0-0-xxxx-0h6p0-0-xxxx--0h6p0-0-xxxx-0h6p0-0-0h3p0-------------------|
F#|--0h6p0-0-xxxx-0h6p0-0-xxxx--0h6p0-0-xxxx-0h6p0-0-0h3p0-------------------|
B|---0h6p0-0-xxxx-0h6p0-0-xxxx--0h6p0-0-xxxx-0h6p0-0-0h3p0-------------------|


C#|--------------------------------------------------------------------------|
G#|--------------------------------------------------------------------------|
E|---------------------------------------------------------------------------|
B|---0h6p0-0-xxxx-0h6p0-0-xxxx--0h6p0-0-xxxx-0h6p0-0-0h3p0-------------------|
F#|--0h6p0-0-xxxx-0h6p0-0-xxxx--0h6p0-0-xxxx-0h6p0-0-0h3p0-------------------|
B|---0h6p0-0-xxxx-0h6p0-0-xxxx--0h6p0-0-xxxx-0h6p0-0-0h3p0-------------------|



This is my first tab so hope you enjoy it.



| .  Palm Mute
| /  slide up
| \  slide down
| h  hammer-on
| p  pull-off
| ~  vibrato
| +  harmonic
| x  Mute note
===============================================================================
Добавлено: 27.06.2013
Другие материалы по этой песне:
  • Аккорды и текст

Страница создана 11.06.2012
http://primanota.ru/chevelle/another-know-it-all-chords.htm
Привет, Гость.
Предлагаем пройти революционный курс по гитаре.
Подарок от PrimaNota.Ru, забирай!