PrimaNota.ru - самый крупный в мире бесплатный архив песенных текстов, аккордов, табулатур и нот


Chet Atkins - Wildwood Flower - таба, видео

Регистрация Запомнить меня
Войти через:  Facebook Google Twitter Vk Yandex Mail.ru

Chet Atkins - Wildwood Flower - таба, видео

Печатать
Просмотров: 168
Уроки эстрадного вокала в Санкт-Петербурге
D=down stroke
U=up stroke
(everthing else is down stroke)

e|-----------0----------------0-0-------------1-1----------------------------|
B|-----------1-----1----------1-1-------------0-0----------------------------|
G|--------0-----2-------------0-0-------------0-0----------------------------|
D|--2-3------------------0H2-------3-2--0----------2P0-----------------------|
A|------------------------------------------------------2-3------------------|
E|---------------------------------------------------------------------------|
             D                D U             D U 

e|--0-0-----------0-0-----------------0-0-----0------------------------------|
B|--1-1-----------1-1-----1-----------1-1-----1------------------------------|
G|--0-0-----------0-0-----0-------0-------2P0--------------------------------|
D|---------------------------2-3--------------------0H2----------------------|
A|---------------------3-----------------------------------------------------|
E|--------0H3----------------------------------------------------------------|
    D U           D U     D           D U     D

 e|----0-0----------------1-1----------------------------------------1-------|
B|-----1-1----------------0-0----------------------------1----1---1----------|
G|-----0-0----------------0-0--------------------0----0----2----2------------|
D|-----------3-2-0---------------2P0-----------2----2-----3------------------|
A|---------------------------------------2-3---------------------------------|
E|---------------------------------------------------------------------------|     
D U                D U

e|---------------3-----------------3------3-------------------1--------------|
B|--------3----3-----3------3H5------5----3-----------3-3-----1--------------|
G|------4----4-----5--------5-----------------5--5P4------2-------3P2--------|
D|---5-----------------------------------------------------------------------|
A|---------------------------------------------------------------------------|
E|---------------------------------------------------------------------------|
U                   U

e|---1-1-------0--------0------------0-0--------0-0--------0-0----------1-1--|
B|---1-1-------1--------1------------1-1--------1-1--------1-1----------0-0--|
G|---------0------------0------------0-0--------0-0--------0-0--0-------0-0--|
D|-----------------------------0H2--------0H2--------0H2----------2-0--------|
A|------------------3--------------------------------------------------------|
E|---------------------------------------------------------------------------|   
D U        D        D            D U        D U        D U          D U

 e|-------------0------------0---0------------------------8------------------|
B|--------------1------------1- -1--------5---6--8--8H10----5--6---5---------|
G|--------------0------------0---0--------5---7--9--9-------5--7---5---------|
D|--2P0---------2------------2---2--------5---7--10-10------5--7---5---------|
A|------2-3--------------------------3---------------------------------------|
E|--------------------0H3----------------------------------------------------|               
D            D  U    

e|-------------------------------8-------------------------------------------|
B|---3-3H5--3--1--5---6--8--8H10----5-6-5-3-3H5----3-------------------------|
G|---4-4----4--0--5---7--9--9-------5-7-5-4-4------4-------------------------|
D|---3-3----3--2--5---7-10--10------5-7-5-3-3------3-------------------------|
A|---------------------------------------------------------------------------|
E|---------------------------------------------------------------------------|


e|--------------8--12------------10--------8---------7-------5-----6----5----|
B|--1-------8-----------8-----------9----------5-------5-------3-------------|
G|--0----------------------------------9---------5-------7------5----3-----5-|
D|--2----------------------10----9---------7---------5-------3---------------|
A|----------0----------------------------------------------------------------|
E|-------3------7--8---------------------------------------------------------| 


e|--3----------------------------------3----0----0---------------------------|
B|---------1----3--4s5--5--5--5----------------3-----3-----1-----------------|
G|-----------------4s5----0--0--0---------0------0---------------------------|
D|-----2--------2-----------5--5--5------------3-----3-----------------------|
A|--3-----------------------------------------------------------3------------|
E|---------3-----------------------------------------------------------------|


e|--------------------------------------------------------8-----------0------|
B|-----------0----1------------------8---------10----------------------------|
G|---0---2-------------------9--10-------------------------------------------|
D|---2----------3-------2-----------------10-----------------10--------------|
A|--------------------3-----------------------------------------------0------|
E|-------1---------------------------8-------------8-------------------------|


e|--------------0----------------0-------------------------------------------|
B|-----6------------------3--------3------1-----------1-------1--------------|
G|----------------------------------------------------2-----------------9----|
D|--7---------------5--------4---------3--------2---------3------2-----------|
A|------------------------5-------------------3---------------3--------------|
E|----------0--------------------3--------------------1----------------------|



e|---------------------------8--------0--------------0------------0----------|
B|-------8---------10--------------------8----6-------------3--------3--1----|
G|---10---------------------------------------------------------------3------|
D|------------10-----------------10---------7-----------7-------4------------|
A|------------------------------------0---------------------5----------------|
E|-------8--------------8-------------------------0---------------3----------|



e|----------------------12------12--10------10--8-------8-7------------------|
B|------------------13-----13-----------12-----------10---------8------------|
G|--------------12-------14----------13------------9---------9---------------|
D|----2----------------------------------------------------------------------|
A|--3-----2------------------------------------------------------------------|
E|------3--------------------------------------------------------------------|

e|--7-5-6-8--7-5--3---------0-0-----0--3--0-----0----------------------------|
B|----6-8-10-8-6--5--1---3--1-1-3---1--3--1--3--1--3---1---------------------|
G|-----------------------0------0------------0-----0-------------------------|
D|-------------------2---------------------------------2---------------------|
A|---------------------------------------------------------------------------|
E|---------------------------------------------------------------------------|


e|-------------12--12--10---8----8---7----5--------7--------------------8----|
B|------13-----13--13--12--10---10---8----6--------6---------------8---------|
G|---12--------14--14--12--10---10---9----5--------5------------9------------|
D|----------------------------------------7--------7-------------------------|
A|----------------------------------------6------5--------10-----------------|
E|-----------------------------------------------------8---------------------|
Добавлено: 23.07.2012
Другие материалы по этой песне:

Страница создана 08.04.2012
http://primanota.ru/chet-atkins/wildwood-flower-chords.htm
Привет, Гость.
Предлагаем пройти революционный курс по гитаре.
Подарок от PrimaNota.Ru, забирай!