PrimaNota.ru - самый крупный в мире бесплатный архив песенных текстов, аккордов, табулатур и нот


Chet Atkins - Trambone - таба, видео

Регистрация Запомнить меня
Войти через:  Facebook Google Twitter Vk Yandex Mail.ru

Chet Atkins - Trambone - таба, видео

Печатать
Просмотров: 120
 Q=168
 4/4
  Gtr I
          ~                                ~
  H    Q  Q    Q  Q  E E Q    E E +E  E H       Q  Q  E E Q
|------------|---------0----|---------0-------|---------0-----|
|------------|----1--3------|-3-1-(1)---------|----1--3-------|
|------------|--------------|-----------------|---------------|
|------------|----2------2--|------2----------|----2------2---|
|---------2--|-3------------|-3---------------|---------------|
|------------|-------3------|-----------3--4--|-5-----0-------|
               Q  Q  Q   Q    Q    Q    Q  Q    Q  Q  Q   Q


               ~
  E E +E  E H       Q  Q  E E E E   +E  E +E  E +E  E Q    Q  Q   Q  Q
|---------0-------|---------0-----|-----------------0----|-----------3--|
|-3-1-(1)---------|----1--3-----3-|-(3)-1-(1)-3-(3)------|----3---------|
|-----------------|---------------|----------------------|----4h5-------|
|-----------------|----3------3---|--------3----------3--|----3---------|
|-0----2----------|---------------|----------------------|--------------|
|--------------0--|-1-----1-------|--1-----------1-------|-3------------|
  Q    Q    Q  Q    Q  Q  Q   E E    Q     Q     Q    Q    Q  E E H


              ~                                ~
  Q   E E H        Q  Q  E E Q    E E +E  E H       Q  Q  E E Q
|-----3----------|---------0----|---------0-------|---------0----|
|-3-----3--------|----1--3------|-3-1-(1)---------|----1--3------|
|-4h5---4--------|--------------|-----------------|--------------|
|-3-----3--------|----2------2--|------2----------|----2------2--|
|-------------2--|-3------------|-3---------------|--------------|
|----------------|-------3------|-----------3--4--|-5-----0------|
  E E E Q   E Q    Q  Q  Q   Q    Q    Q    Q  Q    Q  Q  Q   Q


               ~
  E E +E  E H       Q  Q  E E +E  E
|---------0-------|---------0-(0)---|
|-3-1-(1)---------|----1--3-------3-|
|-----------------|-----------------|
|------2----------|----3-------3----|
|-0---------------|-----------------|
|--------------0--|-1-----1---------|
  Q    Q    Q  Q    Q  Q  Q    Q


  +E  E +E  E +E  E +E  E   E E E E E E E E
|-----0-(0)-3-(3)-0-(0)---|-----3---2-1---0-|
|-(3)-------------------1-|-----5---4-3---1-|
|-------------------------|-----------------|
|--------0-----------3----|-----------------|
|-------------------------|-3-----0---2---3-|
|--2-----------3----------|---3-------------|
   Q     Q     Q     Q


  +H     E E Q    H    E E E E   +H     E  E  Q     H    E  E E  E
|-(0)--------5--|-3------------|-------------10--|--8--------------|
|-(1)--------4--|-5--------4-5-|-(5)----------9--|-10---------9-10-|
|----------7----|-7--------4-5-|-(5)------12-----|-12---------9-10-|
|---------------|--------5-----|-----------------|---------10------|
|-(3)-----------|--------------|-----------------|-----------------|
|---------------|--------------|-----------------|-----------------|


   +W           Q  Q   H       W          Q  Q   H
|-------------|-------^7----|-^5--------|-------^5----|
|-(10)--------|-------^7----|-^7--------|-------^3----|
|-(10)--------|-------^5----|-^5--------|-------^4----|
|-------------|-0-----------|-----------|-------^3----|
|-------------|-------------|-----------|-------------|
|-------------|-------------|-----------|-3-----------|


            ~                                ~
   Q  Q  Q  Q    Q  Q  E E Q    E E +E  E H       Q  Q  E E Q
|-^3-----------|---------0----|---------0-------|---------0----|
|-^3-----------|----1--3------|-3-1-(1)---------|----1--3------|
|-^4-----------|--------------|-----------------|--------------|
|-^3-----------|----2------2--|------2----------|----2------2--|
|--------0--2--|-3------------|-3---------------|--------------|
|-----3--------|-------3------|-----------3--4--|-5-----0------|
                 Q  Q  Q   Q    Q    Q    Q  Q    Q  Q  Q   Q


               ~
  E E +E  E H       Q  Q  E E +E  E   +E  E +E  E +E  E +E  E   E E E E E E Q
|---------0-------|---------0-(0)---|-----0-(0)-3-(3)-0-(0)---|-----3---2-1----|
|-3-1-(1)---------|----1--3-------3-|-(3)-------------------1-|-----5---4-3----|
|-----------------|-----------------|-------------------------|----------------|
|-----------------|----3-------3----|--------0-----------3----|----------------|
|-0----2----------|-----------------|-------------------------|-3-----0---2----|
|--------------0--|-1-----1---------|--2-----------3----------|---3------------|
  Q    Q    Q  Q    Q  Q  Q    Q       Q     Q     Q     Q


           ~                                ~
  Q  Q  Q  Q    Q  Q  E E Q    E E +E  E H       Q  Q  E E Q
|-0-----------|---------0----|---------0-------|---------0----|
|-1-----------|----1--3------|-3-1-(1)---------|----1--3------|
|-------------|--------------|-----------------|--------------|
|-------------|----2------2--|------2----------|----2------2--|
|-3-----0--2--|-3------------|-3---------------|--------------|
|----3--------|-------3------|-----------3--4--|-5-----0------|
                Q  Q  Q   Q    Q    Q    Q  Q    Q  Q  Q   Q


               ~
  E E +E  E H       Q  Q  E E E E   +E  E +E  E +E  E Q    Q  E E E E E E
|---------0-------|---------0-----|-----------------0----|----------------|
|-3-1-(1)---------|----1--3-----3-|-(3)-1-(1)-3-(3)------|----3---3-------|
|-----------------|---------------|----------------------|----3---3-------|
|-----------------|----3------3---|--------3----------3--|------3---3---5-|
|-0----2----------|---------------|----------------------|----------------|
|--------------0--|-1-----1-------|--1-----------1-------|-3--------------|
  Q    Q    Q  Q    Q  Q  Q   E E    Q     Q     Q    Q


                                             ~
  Q  E E Q  Q    Q  Q  E E Q    E E +E  E H       Q  Q  E E Q
|--------------|---------0----|---------0-------|---------0----|
|-5--3---0-----|----1--3------|-3-1-(1)---------|----1--3------|
|-5--3-4-0-----|--------------|-----------------|--------------|
|----3---0-----|----2------2--|------2----------|----2------2--|
|--------------|-3------------|-3---------------|--------------|
|--------------|-------3------|-----------3--4--|-5-----0------|
                 Q  Q  Q   Q    Q    Q    Q  Q    Q  Q  Q   Q


               ~
  E E +E  E H       Q  Q  E E +E  E
|---------0-------|---------0-(0)---|
|-3-1-(1)---------|----1--3-------3-|
|-----------------|-----------------|
|------2----------|----3-------3----|
|-0---------------|-----------------|
|--------------0--|-1-----1---------|
  Q    Q    Q  Q    Q  Q  Q    Q


                                |-3-| |-3-| |-3-|
  +E  E +E  E +E  E +E  E   E E E E E E E E E E E
|-----0-(0)-3-(3)-0-(0)---|------------------------|
|-(3)-------------------1-|------------------------|
|-------------------------|-----------------0---0--|
|--------0-----------3----|-----------2---2---2----|
|-------------------------|-3-------3---3----------|
|--2-----------3----------|-----0h3----------------|
   Q     Q     Q     Q


  H    E E Q    H    E E Q    H    E  E  Q     H    E  E Q
|----------5--|-3-----------|-----------10--|--8------------|
|-1--------4--|-5--------4--|-5----------9--|-10---------9--|
|--------7----|----------4--|-3------12-----|-12---------9--|
|-------------|--------5----|---------------|---------10----|
|-------------|-------------|---------------|---------------|
|-------------|-------------|---------------|---------------|


   H    E E Q    H    E E Q    H    E  E  Q     H    E  E  Q
|-----------7--|-3-----------|-----------12--|-10-------------|
|-10--------6--|-5--------6--|-7---------11--|-12---------11--|
|-10------9----|-7--------6--|-5------14-----|-14---------11--|
|--------------|--------7----|---------------|---------12-----|
|--------------|-------------|---------------|----------------|
|--------------|-------------|---------------|----------------|


            ~                                ~
   H     Q  Q    Q  Q  E E Q    E E +E  E H       Q  Q  E E Q
|--------------|---------0----|---------0-------|---------0----|
|-12-----------|----1--3------|-3-1-(1)---------|----1--3------|
|-10-----------|--------------|-----------------|--------------|
|--------------|----2------2--|------2----------|----2------2--|
|--------0--2--|-3------------|-3---------------|--------------|
|-----3--------|-------3------|-----------3--4--|-5-----0------|
   Q  Q  H       Q  Q  Q   Q    Q    Q    Q  Q    Q  Q  Q   Q


               ~
  E E +E  E H       Q  Q  E E +E  E   +E  E +E  E +E  E +E  E   Q  E E Q  Q
|---------0-------|---------0-(0)---|-----0-(0)-3-(3)-0-(0)---|--------------|
|-3-1-(1)---------|----1--3-------3-|-(3)-------------------1-|--------5--4--|
|-----------------|-----------------|-------------------------|--------5--4--|
|-----------------|----3-------3----|--------0-----------3----|----4-5-------|
|-0----2----------|-----------------|-------------------------|-3------------|
|--------------0--|-1-----1---------|--2-----------3----------|--------------|
  Q    Q    Q  Q    Q  Q  Q    Q       Q     Q     Q     Q


  Q  E E +H
|---------------*|
|-3--2-1-(1)----*|
|-3--3-2-(2)----*|
|---------------*|
|---------------*|
|---------------*|




--------------------------------------------------------------------------------


Duration Legend
---------------
W - whole; H - half; Q - quarter; E - 8th; S - 16th; T - 32nd; X - 64th; a - acciaccatura
+ - note tied to previous; . - note dotted; .. - note double dotted
Uncapitalized letters represent notes that are staccato (1/2 duration)
Irregular groupings are notated above the duration line
Duration letters will always appear directly above the note/fret number it represents the
duration for.  Duration letters with no fret number below them represent rests.  Multi-
bar rests are notated in the form Wxn, where n is the number of bars to rest for.  Low
melody durations appear below the staff

Tablature Legend
----------------
 h   - hammer-on
 p   - pull-off
 b   - bend
 pb  - pre-bend
 r   - bend release (if no number after the r, then release immediately)
 /\  - slide into or out of (from/to "nowhere")
 s   - legato slide
 S   - shift slide
 - natural harmonic
[n]  - artificial harmonic
n(n) - tapped harmonic
 ~   - vibrato
 tr  - trill
 T   - tap
 TP  - trem. picking
 PM  - palm muting
\n/  - tremolo bar dip; n = amount to dip
 \n  - tremolo bar down
 n/  - tremolo bar up
/n\  - tremolo bar inverted dip
 =   - hold bend; also acts as connecting device for hammers/pulls
 <> - volume swell (louder/softer)
 x   - on rhythm slash represents muted slash
 o   - on rhythm slash represents single note slash

Misc Legend
-----------
 |  - bar
||  - double bar
||o - repeat start
o|| - repeat end
*|  - double bar (ending)
 :  - bar (freetime)
 $  - Segno
 &  - Coda
Tempo markers -  = BPM(8/16=s8/s16), where s8 = swing 8ths, s

 .  
Добавлено: 17.02.2014
Другие материалы по этой песне:

Страница создана 30.03.2012
http://primanota.ru/chet-atkins/trambone-chords.htm
Привет, Гость.
Предлагаем пройти революционный курс по гитаре.
Подарок от PrimaNota.Ru, забирай!