PrimaNota.ru - самый крупный в мире бесплатный архив песенных текстов, аккордов, табулатур и нот


Chet Atkins - Peace Like A River - таба, видео

Регистрация Запомнить меня
Войти через:  Facebook Google Twitter Vk Yandex Mail.ru

Chet Atkins - Peace Like A River - таба, видео

Печатать
Просмотров: 141
Уроки эстрадного вокала в Санкт-Петербурге
                           I'VE GOT PEACE LIKE A RIVER
                         As recorded by Chet Atkins

Music by Traditional
Transcribed by Chris Cavendish

      Eb7 Eb9  Ab              Ab7              Db
 4/4
  Gtr I
|------------|-^4-----4----6-|-8-8-(8)--8--6--|-4-----4----4--|
|-----^4--6--|-^4-----4----4-|-7-7-(7)--7--7--|-6-----6----6--|
|-----^6--6--|-^5-----5------|-8-8-(8)--8--8--|-6-----6----6--|
|-----^5--5--|-^6-----6------|----------------|---------------|
|------------|---------------|----------------|---------------|
|------------|---------------|----------------|---------------|
|
| Gtr II
|------------|---------------|----------------|---------------|
|------------|---------------|----------------|---------------|
|------------|---------------|----------------|---------------|
|------------|---------------|-6--------6-----|---------------|
|------------|--6-----6------|------6------6--|-4-----4-------|
|------------|-----4-----4---|----------------|----4-----4----|


  DbAb     Eb7 Eb9  Ab             Bbm7     Gm Fm   Bbm7
  Gtr I
|-----------------|-^4--4--4--6--|-8-8-(8)--6--4--|-6----------|
|-6-4-(4)--^4--6--|-^4--4--6--8--|-9-9-(9)--8--6--|-6----6--6--|
|-6-5-(5)--^6--6--|-^5-----5--7--|-7-7-(7)--7--5--|-6----------|
|-6-6-(6)--^5--5--|-^6-----3--5--|----------5--3--|-6----------|
|-----------------|--------------|----------------|-8----8--8--|
|-----------------|--------------|----------------|-6----------|
|
| Gtr II
|-----------------|--------------|----------------|------------|
|-----------------|--------------|----------------|------------|
|-----------------|--------------|----------------|------------|
|-----------------|--------------|----------------|------------|
|-4---------------|-----6--------|----------------|------------|
|------4----------|--4-----------|-6----6---------|------------|


       Ab7     Ab              Ab7              Db    Ab  Ab°
  Gtr I
|------8--6--|-^4-----4----6-|-8-8-(8)--8--6--|-4-----4---4-|
|-4----7--7--|-^4-----4----4-|-7-7-(7)--7--7--|-6-----4---3-|
|------------|-^5-----5------|-8-8-(8)--8--8--|-6-----5---4-|
|------------|-^6-----6------|----------------|-------6---3-|
|-6----------|---------------|----------------|-------------|
|------------|---------------|----------------|-------------|
|
| Gtr II
|------------|---------------|----------------|-------------|
|------------|---------------|----------------|-------------|
|------------|---------------|----------------|-------------|
|------------|---------------|-6--------6-----|-------------|
|------------|--6-----6------|------6------6--|-4-----6-----|
|------------|-----4-----4---|----------------|----4--------|


  BbAb      EbDb   Fm   Fm  Gm  Dbmaj7  Eb7     Ab
  Gtr I
|----------------|-4----4---6-|--8---8--6--6--|-^4----|
|-6-4-(4)---4-6--|-6----6---8-|--9---9--8--8--|-^4----|
|-3-6-(6)---6-6--|-5----------|-10--10--6--6--|-^5----|
|-3-5-(5)--------|-3----------|-11--11--8--8--|-^6----|
|---6-(6)--------|------------|---------------|-^6----|
|----------------|------------|---------------|-^4----|
|
| Gtr II
|----------------|------------|---------------|-------|
|----------------|------------|---------------|-------|
|----------------|------------|---------------|-------|
|----------------|------------|---------------|-------|
|----------------|------------|--5------6-----|-------|
|----------------|------------|---------------|--4----|


Добавлено: 26.06.2012
Другие материалы по этой песне:
  • Аккорды и текст

Страница создана 26.06.2012
http://primanota.ru/chet-atkins/peace-like-a-river-chords.htm
Привет, Гость.
Предлагаем пройти революционный курс по гитаре.
Подарок от PrimaNota.Ru, забирай!