PrimaNota.ru - самый крупный в мире бесплатный архив песенных текстов, аккордов, табулатур и нот


Chet Atkins - Over The Rainbow - таба, видео

Регистрация Запомнить меня
Войти через:  Facebook Google Twitter Vk Yandex Mail.ru

Chet Atkins - Over The Rainbow - таба, видео

Печатать
Просмотров: 151
Over The Rainbow - Chet Atkins/Les Paul
tabber - shonofear

Time: 4/4


Intro (Key of A)
 Gtr 1
-|-----4---4---4-5-----4---4---4-5-|
-|-----5---5---5-5-----5---5---5-5-|
-|---6---6---6-------6---6---6-----|
-|---7---7---7-------7---7---7-----|
-|-0---------------0---------------|
-|---------------------------------|

 Gtr 2
-|----12^----------7^------12^-----|
-|--------12^--7^------7^----------|
-|---------------------------------|
-|---------------------------------|
-|---------------------------------|
-|------------------------------5/-|

Verse - 00:10
 Gtr 1
-|-----5--------5--------4----------5-|--------------------------------3-2-|
-|---2---2----2---2----5---5----5-5-5-|---7-5-7----4-5-4------5------2-----|
-|---2---2----2---2----6---6----6-6---|---7---7----5---5----4---4----3-3-3-|
-|------------------------------------|---------------------4---4----------|
-|-0-----------------4--------0-------|-5--------3--------4----------------|
-|----------2-------------------------|----------------------------2-------|

 Gtr 2
-|-------------------------------------------|
-|-------------------------------------------|
-|---------14-----13b14r13-----9-11-13-14-11-|
-|-------------------------------------------|
-|-------------------------------------------|
-|/17--17------------------------------------|

-|--------------------------------|
-|--------------------------------|
-|-10b11r--10b11r--10b11r10-----9-|
-|---------------------------11---|
-|--------------------------------|
-|--------------------------------|

 Gtr 1 - 00:26
-|-----0------------------|-------------4-2-|
-|---3---3----------------|---2---2---2---2-|
-|---2---2-------4--6--4--|---2---2---2-----|
-|-0------------7--7--7---|-----------------|
-|-----------5-5----------|-0---------------|
-|------------------------|-----3---2-------|

 Gtr 2
-|--------------------------------------------------------------------|
-|--------------------------------------------------------------------|
-|-------7/9\7-----6/7\6------6-7---------------------11p9------------|
-|------------------------7-9-------7-9b10--10r9--7-----------10p9--7-|
-|-9-8-9--------------------------------------------------------------|
-|--------------------------------------------------------------------|
 Gtr 1
-|-----4-3-2-----0---0--------|-----0--------|
-|----4----------0h2---1p0----|---2---2--2---|
-|---4---------------------2--|---2---2--2---|
-|----------------------------|----------2-r-|
-|-2--------------------------|-0--------0---|
-|------------0---------------|--------------|

 Gtr 2
-|-14p12-----16p14-----18p16----|
-|-------13--------15--------17-|
-|------------------------------|
-|------------------------------|
-|------------------------------|
-|------------------------------|

Verse 2 - 00:42
 Gtr 1
-|-----5-------5---------------------|----------------------------------3-2-|
-|---2-------2---2---------5----5----|-------7---------5-------5----3-2-----|
-|---2-------2---2-------6-------6---|-----7----------5-------4-------------|
-|---------------------6----------6--|---7-----------5-------4--------------|
-|-0----------------4--------------4-|-5--------5--3-----3--4---------------|
-|-------4-2-------------------------|----------------------------2---------|

 Gtr 2
-|-----------------------16b18---18r16-------14-16-17-19/21-19-17-14-14-|
-|----------------------------------------17----------------------------|
-|-------14h16p14-13-14-------------------------------------------------|
-|----------------------------------------------------------------------|
-|----------------------------------------------------------------------|
-|----------------------------------------------------------------------|

-|-14h17-14-14---17p16p15p14----------------------------|
-|-----------------------------14-15-16-17--17p16p15p14-|
-|------------------------------------------------------|
-|------------------------------------------------------|
-|------------------------------------------------------|
-|------------------------------------------------------|

 Gtr 1
-|---------------------------------4------|
-|-7-------------------------------5----2-|
-|-7-----4---4---6--4--3------4----4----2-|
-|-7---7---7-----7--5--4--2---4----2----2-|
-|-5---5---------7--5--4------2---------0-|
-|---------------5--3--2---------0--------|

 Gtr 2
-|-----------------------------------------------/10-11-|
-|-----------------14b15----15r14--15r14---10-12--------|
-|-11h12p11-10-11---------------------------------------|
-|------------------------------------------------------|
-|------------------------------------------------------|
-|------------------------------------------------------|

-|----------------14p12------------------------|
-|-10--13p12-10----------13p12-10--------------|
-|---------------------------------------------|
-|--------------------------------------10p9-7-|
-|---------------------------------------------|
-|---------------------------------------------|
Break - 01:12
 Gtr 1
-|-0-----0---0---0----0----0----0---0---0-|
-|-----2---2---2---2-----3----3---3---3---|
-|----2----1------------2-----1-------1---|
-|---2---------4---2--------------4-------|
-|----------------------------------------|
-|----------------------------------------|

-|-2-----2--2-----2-/-9----7----------------|
-|-----------------------7---10---8-8\7-5-3-|
-|-----2--------2--------7------------------|
-|---2--------2-----------------------------|
-|-0----------------------------------------|
-|----------2---------7-----------0---------|

-|-----0---0---0---0--------------------5-4---------|
-|---2---2---2---2---------4-7-4-7-----4----7-5-4-7-|
-|--2----1----------------5-----------5-------------|
-|-2---------4---2-------6--------------------------|
-|----------------------6---------------------------|
-|---------------------4----------------------------|

-|-4------4---------7-------------|
-|------------------7--7----------|
-|-------------1/------7-------11-|
-|----6------2----------------9---|
-|-4------------------------11----|
-|--------2---------7------0------|

 Gtr 2
-|----------------------------------------------------------------------|
-|-------------------------------------9--9-9-9-10-11-12--12p11p10p9----|
-|-----------------------------------10------------------------------11-|
-|---------------------------------11-----------------------------------|
-|-12r11----------------------------*-----------------------------------|
-|----------------------------------------------------------------------|

 Gtr 1
-|------------------------------------|
-|------------------------------------|
-|-7----------------------------------|
-|-7-----------------5----------------|
-|-5-----------------5----------------|
-|-------------------3----------------|

 Gtr 2
-|------------------------------------|
-|-----12--12-13-14-15-15p14p13p12----|
-|---13----------------------------14-|
-|-14---------------------------------|
-|--*---------------------------------|
-|------------------------------------|









Verse 3 - 01:41 (Key of C)
 Gtr 1
-|---------------------------------------------------|
-|------------8------------------------------------6-|
-|---5------7-----9----------10-----8-----9-------7--|
-|--5--------------10------10------8-----9-------7---|
-|-3------7---------10----8-------6-----7-------5----|
-|--------------------8-----------------------5------|

 Gtr 2
-|---------------------------------------------------------|
-|-----------------13b15r13------12h13p12--------12-13-----|
-|-----------------------------------------12-14--------14-|
-|--10h12p10-9-10------------------------------------------|
-|---------------------------------------------------------|
-|---------------------------------------------------------|

-|--------------------------------|
-|--------------------------------|
-|-14rb13b14--14--13b14r13-----12-|
-|--------------------------14----|
-|--------------------------------|
-|--------------------------------|

 Gtr 1
-|------------------------------|---------------------|
-|------------------------------|----6----------------|
-|----10----------------------6-|---7-----------------|
-|--10------8------10---8----7--|--7------------------|
-|-8-------8-----10----8----7---|-5-------------------|
-|--------6-----8-----6----5----|---------------------|

 Gtr 2
-|-------------------------------------------------------------------------|
-|-------------------------------------------------------------------------|
-|-----------------10-10-10---9/10\9-------9-10-----------------11---------|
-|-----------------------------------10-12-------10-12b13r12-10-12b13-brbr-|
-|-12-11-12-11-12----------------------------------------------------------|
-|-------------------------------------------------------------------------|

Break 2 - 02:08
 Gtr 1
-|-3----3---3---3---3-----3---3---3----5------7-------8-|
-|----5---5---5---5-----6---6---6-----8------8-------8--|
-|---5----4---2---0----5----4---2----7------7-------7---|
-|----------------------------------------5-------4-----|
-|------------------------------------------------------|
-|------------------------------------------------------|

 Gtr 2
-|--------------------------------|
-|--------------------------------|
-|--------------------12-12----12-|
-|--------------------------------|
-|--------------------------------|
-|--------------------------------|






Outro - 02:18
 Gtr 1
-|------------------------------------------3----3----3---3-|
-|----------------------------------5----------5----5----5--|
-|---------------------------------5----------5----4----5---|
-|--------------------------------5-------------------------|
-|-------------------------------3--------------------------|
-|----------------------------------------------------------|

 Gtr 2
-|------------------------16------------------------------22-22-22-22-22-22-22\20-|
-|------------------13-16--------------------------17-20--------------------------|
-|---------------13-----------------------------17--------------------------------|
-|---------10-13--------------------------14-17-----------------------------------|
-|------11-----------------------------15-----------------------------------------|
-|-8-11--------------------------12-15--------------------------------------------|
Добавлено: 21.07.2012
Другие материалы по этой песне:
  • Аккорды и текст

Страница создана 21.07.2012
http://primanota.ru/chet-atkins/over-the-rainbow-chords.htm
Привет, Гость.
Предлагаем пройти революционный курс по гитаре.
Подарок от PrimaNota.Ru, забирай!