PrimaNota.ru - самый крупный в мире бесплатный архив песенных текстов, аккордов, табулатур и нот


Chet Atkins - Maybelle - таба, видео

Регистрация Запомнить меня
Войти через:  Facebook Google Twitter Vk Yandex Mail.ru

Chet Atkins - Maybelle - таба, видео

Печатать
Просмотров: 117
Авторы музыки: Chet Atkins

Q=200
 4/4
  Gtr I
  Q  Q  Q  Q    Q  E E Q  Q    Q  E E E E E E   Q  Q  Q  Q
|-------------|--------------|----------0-----|--------------|
|-------------|-1----1-------|------1h3-------|-3-----1------|
|-------------|----0------0--|----0-----------|----1-----1---|
|-------------|----2------2--|----2-------2---|----0-----0---|
|-------0--2--|-3------3-----|-3------3-------|--------------|
|----3--------|--------------|----------------|-0-----0------|


  Q  Q  Q  Q    Q  E E Q  Q    Q  E E E E E E   Q  Q  Q  Q
|-------------|--------------|----------0-----|-------------|
|-0-----1-----|-1----1-------|------1h3-------|-3--------1--|
|----1-----1--|----2------2--|----2-----------|----2-----2--|
|----0-----0--|----3------3--|----3-------0---|----0-----0--|
|-------------|--------------|----------------|-------------|
|-0-----0-----|-1------1-----|-1------1-------|-2-----2-----|


  E E E E E E Q    Q  Q  Q  Q    Q  Q  E E E E   Q  Q  Q  Q
|-----------0----|-3-----------|----0--3h5-0-3-|-------------|
|-0-1---3--------|-------------|---------------|-------------|
|----------------|----4-----4--|----0--4h5-----|----4-----4--|
|-----0-------0--|----3-----3--|---------------|----3-----3--|
|----------------|-------5-----|---------------|-------5-----|
|-2-------2------|-3-----------|-3-------------|-3-----------|


                3/2                   4/4
  Q  Q  E E Q    Q  Q  Q  E E E E Q    E E E E E E E E   E E E E Q  Q
|----0--3h5-0--|-3--2--1-------------|-----------------|---------------|
|--------------|-x--------3---0------|-----0-----0-----|---------------|
|----0--4h5----|-x----------3---0----|---0-----0-------|-0-----0-------|
|--------------|-x----------------2--|-3-----0-------0-|-----0---------|
|--------------|-x-------------------|-------------3---|---2-----0-----|
|-3------------|-x-------------------|-----------------|------------3--|


  Q  E E Q  Q    Q  E E E E E E   Q  Q  Q  Q    Q  Q  Q  Q
|--------------|----------0-----|-------------|-------------|
|-1----1-------|------1h3-------|-3-----1-----|-0-----1-----|
|----0------0--|----0-----------|----1-----1--|----1-----1--|
|----2------2--|----2-------2---|----0-----0--|----0-----0--|
|-3------3-----|-3------3-------|-------------|-------------|
|--------------|----------------|-0-----0-----|-0-----0-----|


  Q  E E Q  Q    Q  E E E E E E   Q  Q  Q  Q    E E E E E E Q
|--------------|----------0-----|-------------|-----------0----|
|-1----1-------|------1h3-------|-3--------1--|-0-1---3--------|
|----2------2--|----2-----------|----2-----2--|----------------|
|----3------3--|----3-------0---|----0-----0--|-----0-------0--|
|--------------|----------------|-------------|----------------|
|-1------1-----|-1------1-------|-2-----2-----|-2-------2------|


  Q  Q  Q  Q    Q  Q  E E E E   Q  Q  Q  Q    Q  Q  E E Q
|-3-----------|----0--3h5-0-3-|-------------|----0--3h5-0--|
|-------------|---------------|-------------|--------------|
|----4-----4--|----0--4h5-----|----4-----4--|----0--4h5----|
|----3-----3--|---------------|----3-----3--|--------------|
|-------5-----|---------------|-------5-----|--------------|
|-3-----------|-3-------------|-3-----------|-3------------|


  Q  Q  Q  E E   E E Q  E E Q    Q  Q  E E E E   Q  Q  Q  E E
|-3--2--1------|---------------|---------------|-------3p=0-1-|
|-x--------3---|-0-------------|----1--------1-|--------------|
|-x----------3-|---0-----------|----0----0-----|----0---------|
|-x------------|-----2--3-0----|----2------2---|----2---------|
|-x------------|------------2--|-3-------------|-3------------|
|-x------------|---------------|-------3-------|--------------|


  Q  Q  Q  Q    Q  Q  S E. Q    Q  Q  Q  Q    E E E E Q  Q
|-------------|-------3s5--3--|-1-----------|------------0--|
|----0--------|---------------|----0--------|-------0----0--|
|----0--------|----0----------|----0--------|-----0------0--|
|----0--------|----0----------|----0--------|---0--------0--|
|-------0--1--|-2-------------|-------0--1--|-2-------------|
|-3-----------|---------------|-3-----------|---------3-----|


  Q  E S S E E Q    E E E S S E E Q    E E Q  E E Q    Q  Q  Q  E E
|----0-------0----|---0---------0----|---0------0----|-------3p=0-1-|
|-6----7s8--------|-6-----7s8--------|-6------4------|-3------------|
|----0---------0--|-----0---------0--|-----0------0--|----0---------|
|-7--------9------|-7---------9------|-7------4------|-3------------|
|-----------------|------------------|---------------|--------------|
|-----------------|------------------|---------------|--------------|


  Q  Q  Q  Q    Q  Q  Q  E E   Q  Q  Q  Q    E E E E Q  E E
|-------------|-------3p=0-1-|-------------|----------------|
|----0--------|----0---------|----0--------|-------0--------|
|----0--------|----0---------|----0--------|-----0------0---|
|----0--------|----0---------|----0--------|---0--------0---|
|-------0--1--|-2------------|-------0--1--|-2--------------|
|-3-----------|--------------|-3-----------|---------3------|


 3/2                   4/4
  Q  Q  Q  E E E E Q    E E E E E E E E   E E E E Q  Q    Q  E E Q  Q
|-3--2--1-------------|-----------------|---------------|--------------|
|-x--------3---0------|-----0-----0-----|---------------|-1----1-------|
|-x----------3---0----|---0-----0-------|-0-----0-------|----0------0--|
|-x----------------2--|-3-----0-------0-|-----0---------|----2------2--|
|---------------------|-------------3---|---2-----0-----|-3------3-----|
|---------------------|-----------------|------------3--|--------------|


  Q  E E E E E E   E E Q  Q  Q    E E Q  Q  Q    Q  E E Q  Q
|----------0-----|-3s4----0-----|--------------|--------------|
|------1h3-------|--------------|-1h3----1-----|-1----1-------|
|----0-----------|-----1-----1--|-----1-----1--|----2------2--|
|----2-------2---|-----0-----0--|-----0-----0--|----3------3--|
|-3------3-------|--------------|--------------|--------------|
|----------------|---0----0-----|---0----0-----|-1------1-----|


  Q  E E E E E E   Q  Q  Q  Q    E E Q  E E E E   Q  Q  Q  Q
|----------0-----|-5-----------|------------0---|-3-----------|
|------1h3-------|----------5--|-3------3-------|-------------|
|----------------|----5-----5--|---5------------|----4-----4--|
|------------0---|----4-----4--|-----4--------4-|----3-----3--|
|----3-----------|-5-----------|-5--------------|-------5-----|
|-1------1-------|-------5-----|----------5-----|-3-----------|


  Q  Q  E E E E   Q  Q  Q  Q    Q  Q  E E Q    Q  Q  Q  E E
|----0--3h5-0-3-|-------------|----0--3h5-0--|-3--2--1------|
|---------------|-------------|--------------|-x--------3---|
|----0--4h5-----|----4-----4--|----0--4h5----|-x----------3-|
|---------------|----3-----3--|--------------|-x------------|
|---------------|-------5-----|--------------|-x------------|
|-3-------------|-3-----------|-3------------|-x------------|


  E E Q  E E Q    Q  Q  E E E E   Q  Q  Q  E E   Q  Q  Q  Q
|---------------|---------------|-------3--0-1-|-------------|
|-0-------------|----1--------1-|--------------|----0--------|
|---0-----------|----0----0-----|----0---------|----0--------|
|-----2--3-0----|----2------2---|----2---------|----0--------|
|------------2--|-3-------------|-3------------|-------0--1--|
|---------------|-------3-------|--------------|-3-----------|


  Q  Q  Q  E E   Q  Q  Q  Q    E E E E Q  E E   E E E E E E E E
|-------3--0-1-|-------------|----------------|-----------------|
|--------------|----0--------|-------0--------|-----------------|
|----0---------|----0--------|-----0------0---|---------------0-|
|----0---------|----0--------|---0--------0---|---------0---3---|
|-2------------|-------0--1--|-2----------2---|---0---3---7-----|
|--------------|-3-----------|---------3------|-3---7-----------|


  |-3-| |-3-| |-3-| |-3-|
  E E E E E E E E E E E E   E E E E E E E E   Q  Q  Q  E E   Q  Q  Q  Q
|-----------------------0-|-----3-----------|-------3p=0-1-|-------------|
|-----------------0---3---|-6-------6---5---|-3------------|----0--------|
|-----------0---3---5-----|-----------------|----0---------|----0--------|
|-----0---3---7-----------|-----------------|--------------|----0--------|
|---3---7-----------------|-----------------|--------------|-------0--1--|
|-7-----------------------|-----------------|--------------|-3-----------|


                                                3/2
  Q  E E E E Q    Q  Q  Q  Q    E E E E Q  E E   Q  Q  Q  E E E E Q
|----------3p0--|-1-----------|----------------|-3--2--1--------------|
|----0----------|----0--------|-------0--------|-x--------3---0-------|
|------0--------|----0--------|-----0----------|-x----------3---0-----|
|----0----------|----0--------|---0--------0---|-x----------------2---|
|-2-------------|-------0--1--|-2--------------|----------------------|
|--------3------|-3-----------|---------3------|----------------------|


 4/4
  E E E E E E E E   E E E E Q  Q    Q  E E Q  Q    Q  E E E E E E
|-----------------|---------------|--------------|----------0------|
|-----0-----0-----|---------------|-1----1-------|------1h3--------|
|---0-----0-------|-0-----0-------|----0------0--|----0------------|
|-3-----0-------0-|-----0---------|----2------2--|----2-------2----|
|-------------3---|---2-----0-----|-3------3-----|-3------3--------|
|-----------------|------------3--|--------------|-----------------|


  E E Q  Q  Q    E E Q  Q  Q    Q  E E Q  Q    Q  E E E E E E
|-3s4----0-----|--------------|--------------|----------0-----|
|--------------|-1h3----1-----|-1----1-------|------1h3-------|
|-----1-----1--|-----1-----1--|----2------2--|----------------|
|-----0-----0--|-----0-----0--|----3------3--|------------0---|
|--------------|--------------|--------------|----3-----------|
|---0----0-----|---0----0-----|-1------1-----|-1------1-------|


  Q  Q  Q  Q    E E Q  E E E E   Q  Q  Q  Q    Q  Q  E E E E
|-5-----------|------------0---|-3-----------|----0--3h5-0-3-|
|----------5--|-3------3-------|-------------|---------------|
|----5-----5--|---5------------|----4-----4--|----0--4h5-----|
|----4-----4--|-----4--------4-|----3-----3--|---------------|
|-5-----------|-5--------------|-------5-----|---------------|
|-------5-----|----------5-----|-3-----------|-3-------------|


  Q  Q  Q  Q    Q  Q  E E Q    Q  Q  Q  E E   E E Q  E E Q
|-------------|----0--3h5-0--|-3--2--1------|---------------|
|-------------|--------------|-x--------3---|-0-------------|
|----4-----4--|----0--4h5----|-x----------3-|---0-----------|
|----3-----3--|--------------|-x------------|-----2--3-0----|
|-------5-----|--------------|-x------------|------------2--|
|-3-----------|-3------------|-x------------|---------------|


  Q  Q  E E E E   Q  Q  Q  Q    Q  E E E E E E   E E E E E E S S E
|---------------|----0--------|----0-0-----0-0-|-----0-0------------|
|----1--------1-|----1--------|----1-------1---|-----1--------------|
|----0----0-----|----0--------|-0------0h2-----|--------------------|
|----2------2---|----2--2--3--|----------------|-0h2-----2h3-2h3p2--|
|-3-------------|-3-----------|----------------|--------------------|
|-------3-------|-------------|----------------|--------------------|


  Q  E E E E Q    Q  E E E E E E   Q  Q  Q  Q    Q  E E E E Q
|------1--------|------0-------0-|----0--------|----0-------0--|
|----0----------|----1-------1---|----1--------|----1-------1--|
|----0----------|----0-------0---|----0--------|-0----0-2-0----|
|-0------2p0----|----2-------2---|-------2--3--|---------------|
|------------2--|-3--------------|-3-----------|---------------|
|---------------|--------0h3-----|-------------|---------------|


  Q  E E E E Q    Q  E E E E Q    Q  Q  E E E E   Q  E E Q  Q
|---------------|---------------|---------------|-----------8--|
|----1-------1--|----0-------0--|----1--------1-|--------8-----|
|----0-------0--|----0-------0--|----0----0-----|----0---------|
|-2----2-3-2----|-0----0-2-0----|----2------2---|----2---------|
|---------------|---------------|-3-------------|-3------------|
|---------------|---------------|-------3-------|--------------|


   Q   E  E E  E Q    Q  Q  E E E E   Q  E E E E Q    Q  Q  Q  Q
|-12-----12---10----|-8-----8---7---|-5----5s6-5----|-3-----------|
|-------------------|---------------|---------------|-------1--3--|
|-----12---------9--|----9----------|----5-------5--|----0-----0--|
|-10--------9-------|-7-------7-----|-3-------------|----2-----2--|
|-------------------|---------------|---------------|-3-----------|
|-------------------|---------------|---------------|-------3-----|


  Q  Q  Q  Q    E E Q  Q  Q    E E E E E E E E   H      H
|-0-----0-----|-----5--3-----|-----------------|--------------*|
|-1--1-----3--|---5-------5--|-3-------5---3---|-1----[13]----*|
|----0-----5--|-5h6----4-----|---------------0-|-0------------*|
|----2-----6--|---5-------5--|-2-3-4-0-5-4-3---|-2------------*|
|-3-----------|---0----------|-----------------|-3------------*|
|-------6-----|--------------|-----------------|--------------*|




--------------------------------------------------------------------------------


Duration Legend
---------------
W - whole; H - half; Q - quarter; E - 8th; S - 16th; T - 32nd; X - 64th; a - acciaccatura
+ - note tied to previous; . - note dotted; .. - note double dotted
Uncapitalized letters represent notes that are staccato (1/2 duration)
Irregular groupings are notated above the duration line
Duration letters will always appear directly above the note/fret number it represents the
duration for.  Duration letters with no fret number below them represent rests.  Multi-
bar rests are notated in the form Wxn, where n is the number of bars to rest for.  Low
melody durations appear below the staff

Tablature Legend
----------------
 h   - hammer-on
 p   - pull-off
 b   - bend
 pb  - pre-bend
 r   - bend release (if no number after the r, then release immediately)
 /\  - slide into or out of (from/to "nowhere")
 s   - legato slide
 S   - shift slide
 - natural harmonic
[n]  - artificial harmonic
n(n) - tapped harmonic
 ~   - vibrato
 tr  - trill
 T   - tap
 TP  - trem. picking
 PM  - palm muting
\n/  - tremolo bar dip; n = amount to dip
 \n  - tremolo bar down
 n/  - tremolo bar up
/n\  - tremolo bar inverted dip
 =   - hold bend; also acts as connecting device for hammers/pulls
 <> - volume swell (louder/softer)
 x   - on rhythm slash represents muted slash
 o   - on rhythm slash represents single note slash

Misc Legend
-----------
 |  - bar
||  - double bar
||o - repeat start
o|| - repeat end
*|  - double bar (ending)
 :  - bar (freetime)
 $  - Segno
 &  - Coda
Tempo markers -  = BPM(8/16=s8/s16), where s8 = swing 8ths, s16 = swing 16ths
Добавлено: 14.02.2014
Другие материалы по этой песне:

Страница создана 23.02.2012
http://primanota.ru/chet-atkins/maybelle-chords.htm
Привет, Гость.
Предлагаем пройти революционный курс по гитаре.
Подарок от PrimaNota.Ru, забирай!