PrimaNota.ru - самый крупный в мире бесплатный архив песенных текстов, аккордов, табулатур и нот


Chester See - Why Wont You Smile - аккорды и текст, видео

Регистрация Запомнить меня
Войти через:  Facebook Google Twitter Vk Yandex Mail.ru

Chester See - Why Wont You Smile - аккорды и текст, видео

Печатать
Просмотров: 168
Why Wont You Smile
Chester See
Hey :) This is my first tab ever, so I hope it's okay. Any problems, please let me 
know, what.a.cookie.ninja@gmail.com.
This was a joint effort of my friend and me.
So yeah. I think sounds right :) xx

C	                 Gm
Is it something on the ground
 	                   F
Cos it's sunshine all around
 	         C
Don't you wanna see it
 C	                   Gm
Is there something I could say
 	              F
That'll make it all okay
 	             C
And help you to believe it

Am	   Gm
I feel so weak
Am	     Gm
Watching you sink



Chorus:
		F
Why won't you smile?
 	     Gm
Just for a little while
 	     Bb
Just for a moment
 	                 F
You can show it, it's alright
 	        F
Why won't you smile?
 	  Gm
Give it a try

	     Bb
Just let it shine
 	             F
Oh why won't you smile


Verse 2:
C	              Gm
Your tears have gone away
 	                  F
They leave you with the stains
 	        C
There's no denying
 C	              Gm
You hide behind your hair
	                F
and your bitter broken stare
 	                  C
I know that you've been crying

Am	     Gm
What did you lose
 Am	 Gm
What can I do


-Chorus-


Dm
So the world can see

Am
Smile, if not just for me
       F
Oh smile
 Gm
Ooh

(2 GUITAR PARTS)
 Guitar 1:  F	   Gm	   Bb	   F       x2




Guitar 2: F                        Gm
	e|-1--1--0--0--------------1--1--0--0-------------------|
	B|-------------1--1--------------------1--1-------------|
	G|-------------------2--2--------------------2--2-------|
	D|------------------------------------------------------|
	A|------------------------------------------------------|
	E|------------------------------------------------------|


           Bb                     F             F
	e|-1--1--0--0---------------------------1--1--0--0---------------|
	B|-------------1--1-3-1-------------1---------------1--1---------|
	G|-------------------------2----2-3-----------------------2--2---|
	D|---------------------------------------------------------------|
	A|---------------------------------------------------------------|
	E|---------------------------------------------------------------|

           Bb                      F
	e|-1--1--0--0--------------1--1--0--0--------------------|
	B|-------------1--1--------------------1--1-3-1----------|
	G|-------------------2--2--------------------------2-----|
	D|-------------------------------------------------------|
	A|-------------------------------------------------------|
	E|-------------------------------------------------------|




-Chorus-

End on F


:D
Добавлено: 20.07.2012
Другие материалы по этой песне:
  • Аккорды и текст

Страница создана 20.07.2012
http://primanota.ru/chester-see/why-wont-you-smile-chords.htm
Привет, Гость.
Предлагаем пройти революционный курс по гитаре.
Подарок от PrimaNota.Ru, забирай!