PrimaNota.ru - самый крупный в мире бесплатный архив песенных текстов, аккордов, табулатур и нот


Chester See - Radioactive - таба, видео

Регистрация Запомнить меня
Войти через:  Facebook Google Twitter Vk Yandex Mail.ru

Chester See - Radioactive - таба, видео

Печатать
Просмотров: 125
This is my first tab! If there are any mistakes, please let me know in the comments :)

Capo 6

The song is basically these four chords:
just like the original, but with a different capo

Am: 002210
C: 032010
G: (strum)=320003    (tab)=320010
D: 000232

INTRO

------------|------------|------------|------------|
--1----1----|--1----1----|--0----0----|--3----3----|
----2----2--|----0----0--|----0----0--|----2----2--| repeat this until the
------------|------------|------------|--0----0----| end of the first chorus
--0----0----|--3----3----|------------|------------|
------------|------------|--3----3----|------------|



VERSE AND OTHER CHORUS

you can have someone on another guitar strum the chords once at the beginning  of each 
box while someone plays the following tab:

Am                             C
-----------------------------|-----------------------------|
------------------1h3h1------|------------------1h3h1------|
----------2---------------0--|----------0---------------0--|
------2-------2--------------|------2-------2--------------|
--0--------------------------|--3--------------------------|
-----------------------------|-----------------------------|

G                              D
-----------------------------|----------------3---0--|
------------------0h1h0------|---------3-------------|
----------0---------------0--|-----2------2----------|
------0-------0--------------|--0--------------------|
-----------------------------|-----------------------|
--3--------------------------|-----------------------|



BRIDGE
In the song they strum the chords once (I think)
I changed it a little to make it sound better if you're playing alone. Or you can just 
make up something yourself too...

-------------|-------------|------------|-------------|
--1-----1--1-|-1-----------|-0-----0--0-|-------------|
--2-----2--2-|-2-----------|-0-----0--0-|-2-----------|
-----------2-|-------------|----------0-|-0-----------|
--0----------|-3-----------|------------|-------------|
-------------|-------------|-3----------|-------------|
all    systems go           sun    hasn't died
deep    in my  bones      straight from in-side          I'm waking....






* If you are playing alone, playing the same tab during the chorus and the verses will 
get boring/annoying. To make it sound a little different, i like to change the tab during 
the chorus: (NOTE: this is not in the song, i just made this part up as an example)
(Am)                     (C)                    (G)
----------------0-------|----------------------|--------------------|
---------1-----------1--|--------------1-------|---------0----------|
---------2--------------|----------0-----0-----|---------0---0------|
-----2------------------|------2------------2--|-----0-----------0--|
--0----------0----------|--3-------------------|--------------------|
------------------------|----------------------|--3-----------------|

(D)
----------2------|
----------3---3--|
------2----------|
--0-------0------|
-----------------|
-----------------|

(If you want to make up your own to make it more original, anything sounds great as long 
as you keep the same base chords: Am,C,G,D)

LYRICS

I feel it in my bones
Enough to make my systems blow
Welcome to the new age, to the new age
Welcome to the new age, to the new age


I'm waking up to ash and dust
I wipe my brow and I sweat my rust
I'm breathing in the chemicals

I'm breaking in, shaping up, then checking out on the prison bus
This is it, the apocalypse
Whoa

I'm waking up, I feel it in my bones
Enough to make my systems blow
Welcome to the new age, to the new age
Welcome to the new age, to the new age
Whoa, whoa, I'm radioactive, radioactive
Whoa, whoa, I'm radioactive, radioactive

I raise my flags, don my clothes
It's a revolution, I suppose
We're painted red to fit right in
Whoa

I'm breaking in, shaping up, then checking out on the prison bus
This is it, the apocalypse
Whoa

I'm waking up, I feel it in my bones
Enough to make my systems blow
Welcome to the new age, to the new age
Welcome to the new age, to the new age
Whoa, whoa, I'm radioactive, radioactive
Whoa, whoa, I'm radioactive, radioactive

All systems go, the sun hasn't died
Deep in my bones, straight from inside

I'm waking up, I feel it in my bones
Enough to make my systems blow
Welcome to the new age, to the new age
Welcome to the new age, to the new age
Whoa, whoa,I'm radioactive, radioactive
Whoa, whoa,I'm radioactive, radioactive

I'm waking up...
Добавлено: 13.07.2013
Другие материалы по этой песне:
  • Аккорды и текст

Страница создана 10.06.2013
http://primanota.ru/chester-see/radioactive-chords.htm
Привет, Гость.
Предлагаем пройти революционный курс по гитаре.
Подарок от PrimaNota.Ru, забирай!