PrimaNota.ru - самый крупный в мире бесплатный архив песенных текстов, аккордов, табулатур и нот


Chester See - God Damn Youre Beautiful - аккорды и текст, таба, видео

Регистрация Запомнить меня
Войти через:  Facebook Google Twitter Vk Yandex Mail.ru

Chester See - God Damn Youre Beautiful - аккорды и текст, таба, видео

Печатать
Просмотров: 234
God Damn Youre Beautiful
Chester See
God Damn You're Beautiful guitar tab
By Chester See

This is from the guitar tutorial by 'logueybear' on youtube, 
http://www.youtube.com/watch?v=AoMx3C2W8ZA

Capo 1
Standard Tuning

Intro
e|-----0-0-0---------3----------0-0-0-3--2-----0-0-3-----0-2-3---|
B|-----0-3-3----1-0--0----------0-3-3-h1-3-----0-1-0--0--0-3-0---|
G|-0h2-0-0-0---------0------0h2-0-0-0-0--2-----0-0-0---2-0-2-0---|
D|-----2-2-2---------0----------2-2-2-0--0-----2-2-0-----2-0-0---|
A|-----2-2-3---------2----------2-2-3-2--x-----2-3-2-----2-x-2---|
E|-----x-x-x---------3----------x-x-x-3--x-----x-x-3-----0-x-3---|

Verse1
Em7		      Cadd9     G                   
On the days I can't see your eyes,
Em7	        Cadd9     G	     D
I don't even want to, open mine.
Em7	          Cadd9		G
On the days I can't see your smile,
Em7	          Cadd9		G
Well I'd rather sit, wait the while.
Em7 		       Cadd9      G
For the days I know you'll be near,
Em7	         Cadd9	   G	      D
'Cause a day without you, just isn't fair.
Em7 		    Cadd9       G
See the days I can hear your voice,
Em7	        D       G
I'm left without a choice.


Em7		          D
Plus I get weak in the knees,
            Cadd9  G
Fall head over heels baby,
Em7	D	Cadd9	G
And every other cheesy cliche.
Em7		D
Yes I'm swept off my feet,
Cadd9		G
Oh my heart skips a beat.
Em7		D		G
But there's really only one thing to say.


Cadd9 D
God damn you're beautiful to me,
G      D Em7 D       Cadd9            D
You're everything, yeah that's beautiful
G D Em7 D Cadd9 D
Yes to me, Ohhh

e|-----0-0-0---------3---------0-2-3---|
B|-----0-3-3----1-0--0------0--0-3-0---|
G|-0h2-0-0-0---------0-------2-0-2-0---|
D|-----2-2-2---------0---------2-0-0---|
A|-----2-2-3---------2---------2-x-2---|
E|-----x-x-x---------3---------0-x-3---|


I can't find the words to explain,
Just how much you got me going insane.
When you speak to me sometimes we fight,
Oh I stutter my words I say never mind.
'Cause even when you just walk by,
Well I look around to seem occupied.
'Cause I'm trying so hard to hide,
Yeah, All these feelings inside.

'Cause I get weak in the knees,
Fall head over heels baby,
And every other cheesy cliche.
Oh I'm swept off my feet,
My heart skips a beat.
But there's really only one thing to say.

God damn you're beautiful to me, oh
You're everything, Yeah, that's beautiful
Yes to me, Ohhh
Yes to me, Ohhh

Cadd9 D
Yeah you're beautiful..
Cadd9 D
Yeah you're beautiful..
Cadd9 D
God damn, you're beautiful,

To me,
e|-----0-0-0---------3---------0-2-3---|
B|-----0-3-3----1-0--0------0--0-3-0---|
G|-0h2-0-0-0---------0-------2-0-2-0---|
D|-----2-2-2---------0---------2-0-0---|
A|-----2-2-3---------2---------2-x-2---|
E|-----x-x-x---------3---------0-x-3---|

To me.
Добавлено: 29.04.2012
Другие материалы по этой песне:
  • Аккорды и текст

Страница создана 26.03.2012
http://primanota.ru/chester-see/god-damn-youre-beautiful-chords.htm
Привет, Гость.
Предлагаем пройти революционный курс по гитаре.
Подарок от PrimaNota.Ru, забирай!