PrimaNota.ru - самый крупный в мире бесплатный архив песенных текстов, аккордов, табулатур и нот


Chess Club - Boy On A Bicycle - бас-таба, видео

Регистрация Запомнить меня
Войти через:  Facebook Google Twitter Vk Yandex Mail.ru

Chess Club - Boy On A Bicycle - бас-таба, видео

Печатать
Просмотров: 94
Chess Club-


Boy on a Bicycle

Standard Tuning
4-string Bass

 (=) Hold note for full value
 (-) Do not Hold Note for full value

 \= slide

The Tempo is around 75 bpm

Intro(Synth):

 
G|-9-9-9-9--------|-7-7-7-7-7-7-7-8|\
D|---------9-9-9-9|----------------| \Repeated throughout song, 
A|7---7-----------|5---5---5---5-6-| /But played twice at beginning
E|--------7---7---|----------------|/
  1 + 2 + 3 + 4 +  1 + 2 + 3 + 4 +
 
  Main Riff(Played on verses) 

G|----------------|----------------|----------------|----------------|
D|----------------|---------5------|----------------|---------5------|
A|7-7===----------|5-5===557-757--5|7-7===----------|5-5===557-757--5|
E|------567-7===78|-------------57-|------567-7===78|-------------57-|
  1 + 2 + 3 + 4 +  1 + 2 + 3 + 4 +  1 + 2 + 3 + 4 +  1 + 2 + 3 + 4 + 

Play Twice



The Two Phrases before the Chorus:

G|----------------|----------------|----------------|----------------|
D|----------------|---------5------|----------------|---------5------|
A|7-7=7=----------|5-5===557-757--5|7-7===----------|5-5===557-757-7\|
E|------567-7===78|-------------57-|------567-7===78|----------------|
  1 + 2 + 3 + 4 +  1 + 2 + 3 + 4 +  1 + 2 + 3 + 4 +  1 + 2 + 3 + 4 + 


Chorus(SWUNG!and Slightly Slower):

G|----------------|----------------|----------------|----------------|
D|---------5------|----------------|---------5------|----------------|
A|--------7-7=7=--|-5-------5------|--------7-7=7=--|-5-------5------|
E|3=3=3=00------56|7-7=7=7=7-7=7=7=|3=3=3=00------56|7-7=7=7=7-7=7=7=|

Repeat and then Play over
Добавлено: 04.11.2013
Другие материалы по этой песне:
  • Аккорды и текст

Страница создана 04.11.2013
http://primanota.ru/chess-club/boy-on-a-bicycle-chords.htm
Привет, Гость.
Предлагаем пройти революционный курс по гитаре.
Подарок от PrimaNota.Ru, забирай!