PrimaNota.ru - самый крупный в мире бесплатный архив песенных текстов, аккордов, табулатур и нот


Cherub - Hold Me - аккорды и текст, видео

Регистрация Запомнить меня
Войти через:  Facebook Google Twitter Vk Yandex Mail.ru

Cherub - Hold Me - аккорды и текст, видео

Печатать
Просмотров: 88
Уроки эстрадного вокала в Санкт-Петербурге
Hold Me
Cherub
Hold Me - Cherub

Capo 1
Alternate without Capo
Em - Fm
G - Ab/G#
D - D#/Eb


(Riff not relevant to capo)
E|------------------------------------------------------------|
B|------------------------------------------------------------| Low
G|------------------------------------------------------------|
D|--------6---8--10-------6--8-p6---------6---8--10--------6--|
A|-6---8------------6--8-----------6---8-------------6--8-----|
E|------------------------------------------------------------|

OR

E|-----------------8-------------------------------8----------|
B|---------9---11-----------9--11----------9---11----------9--| High
G|-8---10------------8--10---------8---10------------8--10----|
D|------------------------------------------------------------|
A|------------------------------------------------------------|
E|------------------------------------------------------------|


This is the actual chord shape. Irrelevant to capo placement.
    (Em)    (Em)   (D)(D) (D)  (D)(D)(D)(D)(D)
E|---8-------8------6--6---6----6--6--6--6--6----------------------|
B|---7-------7------8--8---8----8--8--8--8--8----------------------|
G|---8-------8------7--7---7----7--7--7--7--7----------------------|
D|---10------10-----8--8---8----8--8--8--8--8----------------------|
A|---8-------8------6--6---6----6--6--6--6--6----------------------|
E|-----------------------------------------------------------------|


Em            D
I don't wanna wake up
Em                 D
Just wanna keep my eyes shut
Em             D                   Em            D
How long can I sleep with you here right next to me
Em              D
Come live love
Em                D
Dreams as fake as makeup
Em                      D
But who cares if they're made up
Em          D          Em            D
Fuck reality, its much better in my sleep
Em         D
Eyes stay shut

Em,Em

Em            D
Money hungry devils
Em                D
Making green seem evil
Em             D
Pay me off in cash
        Em                D
I don't care how long it lasts
Em            D
It comes and goes
Em                 D
Pie split from all angles
Em              D
Much harder to handle
Em          D          Em            D
Fuck reality, its much better in my sleep
Em         D
Legs dangle

Em,Em/Riff

Em                                  G                 D
Hold me in my sleep, Hold me in my sleep, hold me forever

C                                  G                 D
Hold me in my sleep, Hold me in my sleep, hold me forever

Em                                        G                   D
Nothings what it seems, Nothings what it seems, keep it together

C                                   G                  D
Living in our dreams, Living in our dreams, living forever

(Follow previous verse pattern)
Em D
Em D
Em D Em D
Em D
Em D
Em D
Em D Em D
Em D

Em,Em/Riff

(Chorus)
Em                                  G                 D
Hold me in my sleep, Hold me in my sleep, hold me forever

C                                  G                 D
Hold me in my sleep, Hold me in my sleep, hold me forever

Em                                        G                   D
Nothings what it seems, Nothings what it seems, keep it together

C                                   G                  D
Living in our dreams, Living in our dreams, living forever

(Follow Chorus Pattern w/ Riff)
Em G D

C G D

Em G D

C G D
(On last time only strike chords once)

Thanks for viewing my tab!
Добавлено: 14.08.2015
Вам также может быть интересно:
Другие материалы по этой песне:
  • Аккорды и текст

Страница создана 14.08.2015
http://primanota.ru/cherub/hold-me-chords.htm
Привет, Гость.
Предлагаем пройти революционный курс по гитаре.
Подарок от PrimaNota.Ru, забирай!