PrimaNota.ru - самый крупный в мире бесплатный архив песенных текстов, аккордов, табулатур и нот


Cherry Glazerr - Teenage Girl - таба, видео

Регистрация Запомнить меня
Войти через:  Facebook Google Twitter Vk Yandex Mail.ru

Cherry Glazerr - Teenage Girl - таба, видео

Печатать
Просмотров: 199
-------------------------------------------------------------------------------
                             Teenage Girl - Cherry Glazerr
-------------------------------------------------------------------------------
Tabbed by:chddr
E-mail:eaiv95@gmail.com

Tuning:Standard

The tab is based on my cover so it might not be 100% accurate/the way Clem plays it.

0:00-0:20

e|------------------------------|
B|------------------------------|
G|------------------------------|
D|--------10--------------7-----|
A|----10------10-----5h7-----7--|
E|-8--------------5-------------|

0:21-0:35

e|------------------------------|
B|------------------------------|
G|------------------------------|
D|-10----------7----------------|
A|-10-x8-------7--x8------------|
E|-8-----------5----------------|

0:36-0:42

e|------------------------------|
B|------------------------------|
G|------------------------------|
D|-10----10-10------7----7-7----|
A|-10----10-10------7----7-7----|
E|-8-----8--8-------5----5-5----|

0:43-1:01

e|-------------------------------------|
B|-------------------------------------|
G|------------------------------11-----|
D|--------9b--------------12--9----12--|
A|-----10----10-------10---------------|
E|-8--------------8--------------------|

e|-------------------------------|
B|-------------------------------|
G|--------------------------8----|
D|-------6b------------9--6---9--|
A|-----7----7-------7------------|
E|-5------------5----------------|

1:01-end

e|-----------------------------|
B|-----------------------------|
G|-----------------------------|
D|-------10--10----------7--7--|
A|---10--10--10-----5h7--7--7--|
E|-8------8---8---5------5--5--|

************************************

| /   slide up
| \   slide down
| h   hammer-on
| p   pull-off
| ~   vibrato
| +   harmonic
| x   Mute note
| b   Bend
| pb  Pre-bend
| br  Bend release
| pbr Pre-bend release
| brb Bend release bend

************************************
Добавлено: 22.09.2014
Другие материалы по этой песне:
  • Аккорды и текст

Страница создана 22.09.2014
http://primanota.ru/cherry-glazerr/teenage-girl-chords.htm
Привет, Гость.
Предлагаем пройти революционный курс по гитаре.
Подарок от PrimaNota.Ru, забирай!