PrimaNota.ru - самый крупный в мире бесплатный архив песенных текстов, аккордов, табулатур и нот


Cherry Glazerr - Sip O Poison - бас-таба, видео

Регистрация Запомнить меня
Войти через:  Facebook Google Twitter Vk Yandex Mail.ru

Cherry Glazerr - Sip O Poison - бас-таба, видео

Печатать
Просмотров: 54
-------------------------------------------------------------------------------
                             Sip O' Poison - Cherry Glazerr
-------------------------------------------------------------------------------
Tabbed by: joel94

Tuning: standard

Great song from Adult Swim Singles 2015

Verses
G|---7---------5---| |----7-------------|
D|-----5h7-5h7---7-| |------5h7---------|
A|-5---------------| |-5---------7-7-8~-|
E|-----------------| |------------------|

Chorus and Ending
G|-------------------------------|
D|-------------------------------|
A|-5----5----5----5--7-8---------|
E|-------------------------------|

Bridge part, in the song it sounds like it's played along with a synth.
G|---7-5-------5------7-5-----------|
D|-------5h7-7---7--------5---------|
A|-5----------------5--------7-7-8~-|
E|----------------------------------|

You can play in Drop D and play everything an octave
lower to switch things up.

h - hammer on
~ - let ring
Добавлено: 27.06.2016
Другие материалы по этой песне:
  • Аккорды и текст

Страница создана 27.06.2016
http://primanota.ru/cherry-glazerr/sip-o-poison-chords.htm
Привет, Гость.
Предлагаем пройти революционный курс по гитаре.
Подарок от PrimaNota.Ru, забирай!