PrimaNota.ru - самый крупный в мире бесплатный архив песенных текстов, аккордов, табулатур и нот


Cherry Glazerr - Nurse Ratched - таба, видео

Регистрация Запомнить меня
Войти через:  Facebook Google Twitter Vk Yandex Mail.ru

Cherry Glazerr - Nurse Ratched - таба, видео

Печатать
Просмотров: 141
-------------------------------------------------------------------------------
                             Nurse Ratched - Cherry Glazerr
-------------------------------------------------------------------------------
Tabbed by: sabrespinner
E-mail: para4life77@gmail.com

Tuning: Standard

e|--3---4---3---1------------------------------------------------------------|
B|--4---4---3---1------------------------------------------------------------|
G|--5---5---4---2------------------------------------------------------------|
D|--5---6---5---3------------------------------------------------------------|
A|--3---6---5---3------------------------------------------------------------|
E|--x---4---3---1------------------------------------------------------------| x5

e|---------------------------------------------------------------------------|
B|--------------------------1---------------------------666666b--------------|
G|-----5------5-----5------------------5-----5-----5-------------------------|
D|---------------------------------------------------------------------------|
A|--3-------------------------------3----------------------------------------|
E|---------4-----3------1-----------------4-----3----------------------------| x2

e|--3---1---4---6------------------------------------------------------------|
B|--4---2---4---6------------------------------------------------------------|
G|--5---3---5---7------------------------------------------------------------|
D|--5---3---6---8------------------------------------------------------------|
A|--3---1---6---8------------------------------------------------------------|
E|--x---x---4---6------------------------------------------------------------| x4

e|---------------------------------------------------------------------------|
B|--------------------------1---------------------------666666b--------------|
G|-----5------5-----5------------------5-----5-----5-------------------------|
D|---------------------------------------------------------------------------|
A|--3-------------------------------3----------------------------------------|
E|---------4-----3------1-----------------4-----3----------------------------| x2


e|---------------------------------------------------------------------------|
B|--13-11--------------------------------------------------------------------|
G|----------10-12---10-12-13-12--10-12-13-12-10-12b--------------------------|
D|---------------------------------------------------------------------------|
A|---------------------------------------------------------------------------|
E|---------------------------------------------------------------------------|

e|---------------------------------------------------------------------------|
B|---------------------------------------------------------------------------|
G|--12-10--------------------------------------------------------------------|
D|--------13-12-13-15--13-12-13-15-13-12--9-10-12-10-------------------------|
A|---------------------------------------------------------------------------|
E|---------------------------------------------------------------------------| x2


e|--3---4---3---1------------------------------------------------------------|
B|--4---4---3---1------------------------------------------------------------|
G|--5---5---4---2------------------------------------------------------------|
D|--5---6---5---3------------------------------------------------------------|
A|--3---6---5---3------------------------------------------------------------|
E|--x---4---3---1------------------------------------------------------------| x5

e|---------------------------------------------------------------------------|
B|--------------------------1---------------------------666666b--------------|
G|-----5------5-----5------------------5-----5-----5------------5/-----------|
D|---------------------------------------------------------------------------|
A|--3-------------------------------3----------------------------------------|
E|---------4-----3------1-----------------4-----3----------------------------| 



************************************

| /   slide up
| \   slide down
| h   hammer-on
| p   pull-off
| ~   vibrato
| +   harmonic
| x   Mute note
| b   Bend
| pb  Pre-bend
| br  Bend release
| pbr Pre-bend release
| brb Bend release bend

************************************
Добавлено: 11.06.2015
Вам также может быть интересно:
Другие материалы по этой песне:
  • Аккорды и текст

Страница создана 11.06.2015
http://primanota.ru/cherry-glazerr/nurse-ratched-chords.htm
Привет, Гость.
Предлагаем пройти революционный курс по гитаре.
Подарок от PrimaNota.Ru, забирай!