PrimaNota.ru - самый крупный в мире бесплатный архив песенных текстов, аккордов, табулатур и нот


Cherry Glazerr - Had 10 Dollaz - таба, видео

Регистрация Запомнить меня
Войти через:  Facebook Google Twitter Vk Yandex Mail.ru

Cherry Glazerr - Had 10 Dollaz - таба, видео

Печатать
Просмотров: 167
-------------------------------------------------------------------------------
                             Had 10 Dollaz - Cherry Glazerr
-------------------------------------------------------------------------------
Tabbed by: sabrespinner
E-mail: para4life77@gmail.com

Tuning: Standard

e|---------10------------5---------3-------3---------------------------------|
B|------11----11\------6---------4---4---4---4/------------------------------|
G|---12--------------7------6--5-------5-------------------------------------|
D|---------------------------------------------------------------------------|
A|---------------------------------------------------------------------------|
E|---------------------------------------------------------------------------|

e|---------10------------5---------------------------------------------------|
B|------11----11\------6-----------------------------------------------------|
G|---12--------------7-------6--5b-------------------------------------------|
D|---------------------------------------------------------------------------|
A|---------------------------------------------------------------------------|
E|---------------------------------------------------------------------------|

(Just kind of play around with these chords)

e|-10--10-----5-5-5-----5-4-3---3--------------------------------------------|
B|-11--11-----6-6-6-----6-5-4---4--------------------------------------------|
G|-12--12-----7-7-7-----7-6-5---5--------------------------------------------|
D|-12--12-----7-7-7-----7-6-5---5--------------------------------------------|
A|-10--10-----5-5-5-----5-4-3---3--------------------------------------------| x5
E|---------------------------------------------------------------------------|

e|-------------------------5-------------------------------------------------|
B|-------------------------6-------------------------------------------------|
G|--12---------------------7-------------------------------------------------|
D|--12--------8------------7-------------------------------------------------|
A|--10--x6----8-------3/5----------------------------------------------------| x4
E|------------6--x6----------------------------------------------------------|

e|---------------------------------------------------------------------------|
B|---------------------------------------------------------------------------|
G|---------------------------------------------------------------------------|
D|--5-------10------8--------------------------------------------------------|
A|--5-------10------8--------------------------------------------------------| x4
E|--3--x8---8--x8---6--x16---------------------------------------------------|

e|------6--------------------------------------------------------------------|
B|--------6------------------------------------------------------------------|
G|----7---------------------5b-3-------3-------------------------------------|
D|--5------------5---3/5-5-------5-3-5---5-----------------------------------|
A|-------------5-------------------------------------------------------------| x4
E|-----------6---------------------------------------------------------------|

(Again just play around with these chords)

e|-10--10--10----5-5-5-------3---3-------------------------------------------|
B|-11--11--11----6-6-6-------4---4-------------------------------------------|
G|-12--12--11----7-7-7-------5---5-------------------------------------------|
D|-12--12--12----7-7-7-------5---5-------------------------------------------|
A|-10------------5-----------3-----------------------------------------------| x4
E|---------------------------------------------------------------------------|

e|-10--10-----5-5-5-----5-4-3---3--------------------------------------------|
B|-11--11-----6-6-6-----6-5-4---4--------------------------------------------|
G|-12--12-----7-7-7-----7-6-5---5--------------------------------------------|
D|-12--12-----7-7-7-----7-6-5---5--------------------------------------------|
A|-10--10-----5-5-5-----5-4-3---3--------------------------------------------| x4
E|---------------------------------------------------------------------------|

e|-------------------------5-------------------------------------------------|
B|-------------------------6-------------------------------------------------|
G|--12---------------------7-------------------------------------------------|
D|--12--------8------------7-------------------------------------------------|
A|--10--x6----8-------3/5----------------------------------------------------| x4
E|------------6--x6----------------------------------------------------------|

e|---------------------------------------------------------------------------|
B|---------------------------------------------------------------------------|
G|---------------------------------------------------------------------------|
D|--5-------10------8--------------------------------------------------------|
A|--5-------10------8--------------------------------------------------------| x4
E|--3--x8---8--x8---6--x16---------------------------------------------------|

e|------6--------------------------------------------------------------------|
B|--------6------------------------------------------------------------------|
G|----7---------------------5b-3-------3-------------------------------------|
D|--5------------5---3/5-5-------5-3-5---5-----------------------------------|
A|-------------5-------------------------------------------------------------| x4
E|-----------6---------------------------------------------------------------|



************************************

| /   slide up
| \   slide down
| h   hammer-on
| p   pull-off
| ~   vibrato
| +   harmonic
| x   Mute note
| b   Bend
| pb  Pre-bend
| br  Bend release
| pbr Pre-bend release
| brb Bend release bend

************************************
Добавлено: 11.06.2015
Другие материалы по этой песне:
  • Аккорды и текст

Страница создана 11.06.2015
http://primanota.ru/cherry-glazerr/had-10-dollaz-chords.htm
Привет, Гость.
Предлагаем пройти революционный курс по гитаре.
Подарок от PrimaNota.Ru, забирай!