PrimaNota.ru - самый крупный в мире бесплатный архив песенных текстов, аккордов, табулатур и нот


Cherry Glazerr - Grilled Cheese - таба, бас-таба, видео

Регистрация Запомнить меня
Войти через:  Facebook Google Twitter Vk Yandex Mail.ru

Cherry Glazerr - Grilled Cheese - таба, бас-таба, видео

Печатать
Просмотров: 155
-------------------------------------------------------------------------------
                             SONG NAME - Band Name
-------------------------------------------------------------------------------
Tabbed by:
E-mail:

Tuning:

verse
e|------5----------5-----------------------------------------------------------|
B|------5----------6-------8-------3-------------------------------------------|
G|----5-5----------5-------7-------2-------------------------------------------|
D|--7---7------5h7-7-----9-9-----4-4-------------------------------------------|
A|-----------5-----5---7---7---2---2-------------------------------------------|
E|-----------------------------------------------------------------------------|
 
outro
e|----5--5---------------------------------------------------------------------|
B|----5--6--8--3---------------------------------------------------------------|
G|----5--5--7--2---------------------------------------------------------------|
D|----7--7--9--4---------------------------------------------------------------|
A|-------5--7--2---------------------------------------------------------------|
E|-----------------------------------------------------------------------------|

Добавлено: 11.06.2015
Другие материалы по этой песне:
  • Аккорды и текст

Страница создана 13.11.2014
http://primanota.ru/cherry-glazerr/grilled-cheese-chords.htm
Привет, Гость.
Предлагаем пройти революционный курс по гитаре.
Подарок от PrimaNota.Ru, забирай!