PrimaNota.ru - самый крупный в мире бесплатный архив песенных текстов, аккордов, табулатур и нот


Cherry Glazerr - Bloody Bandaid - таба, бас-таба, видео

Регистрация Запомнить меня
Войти через:  Facebook Google Twitter Vk Yandex Mail.ru

Cherry Glazerr - Bloody Bandaid - таба, бас-таба, видео

Печатать
Просмотров: 168
-------------------------------------------------------------------------------
                             Bloody Bandaid - Cherry Glazerr
-------------------------------------------------------------------------------
Tabbed by: sabrespinner
E-mail: para4life77@gmail.com

Tuning: Standard

e|----9----------7----------4------------------------------------------------|
B|----9----------7----------4------------------------------------------------|
G|----10---------8----------5------------------------------------------------|
D|----11---------9----------6------------------------------------------------|
A|----11---------9----------6------------------------------------------------|
E|----9----------7----------4------------------------------------------------| x8

e|---------------4-----------------------------------------------------------|
B|---------------4-----------------------------------------------------------|
G|----1----------5-----------------------------------------------------------|
D|----2----------6-----------------------------------------------------------|
A|----2----------6-----------------------------------------------------------|
E|---------------4-----------------------------------------------------------| x3

e|----9----------7----------4------------------------------------------------|
B|----9----------7----------4------------------------------------------------|
G|----10---------8----------5------------------------------------------------|
D|----11---------9----------6------------------------------------------------|
A|----11---------9----------6------------------------------------------------|
E|----9----------7----------4------------------------------------------------| x4

e|---------------4-----------------------------------------------------------|
B|---------------4-----------------------------------------------------------|
G|----1----------5-----------------------------------------------------------|
D|----2----------6-----------------------------------------------------------|
A|----2----------6-----------------------------------------------------------|
E|---------------4-----------------------------------------------------------| x3

e|----9----------7----------4------------------------------------------------|
B|----9----------7----------4------------------------------------------------|
G|----10---------8----------5------------------------------------------------|
D|----11---------9----------6------------------------------------------------|
A|----11---------9----------6------------------------------------------------|
E|----9----------7----------4------------------------------------------------| x2

e|---------------4-----------------------------------------------------------|
B|---------------4-----------------------------------------------------------|
G|----1----------5-----------------------------------------------------------|
D|----2----------6-----------------------------------------------------------|
A|----2----------6-----------------------------------------------------------|
E|---------------4-----------------------------------------------------------| x2

e|---------------------------------------------------------------------------|
B|---------------------------------------------------------------------------|
G|---13-10-13-10-------------------------------------------------------------|
D|---------------10--13-13-13-11-9-13-13-11-9--------------------------------|
A|--------------------------------------------11-11--------------------------|
E|---------------------------------------------------------------------------|

e|---------------------------------------------------------------------------|
B|---------------------------------------------------------------------------|
G|---13-13-10----------------------------------------------------------------|
D|------------13--9---13-13-11-9---------------------------------------------|
A|-------------------------------11------------------------------------------|
E|-----------------------------------11-11--9-7-444--------------------------|

e|----9----------7----------4------------------------------------------------|
B|----9----------7----------4------------------------------------------------|
G|----10---------8----------5------------------------------------------------|
D|----11---------9----------6------------------------------------------------|
A|----11---------9----------6------------------------------------------------|
E|----9----------7----------4------------------------------------------------| x2

e|---------------4-----------------------------------------------------------|
B|---------------4-----------------------------------------------------------|
G|----1----------5-----------------------------------------------------------|
D|----2----------6-----------------------------------------------------------|
A|----2----------6-----------------------------------------------------------|
E|---------------4-----------------------------------------------------------| x2

e|----9----------7----------4------------------------------------------------|
B|----9----------7----------4------------------------------------------------|
G|----10---------8----------5------------------------------------------------|
D|----11---------9----------6------------------------------------------------|
A|----11---------9----------6------------------------------------------------|
E|----9----------7----------4------------------------------------------------| x4


e|---------------4-----------------------------------------------------------|
B|---------------4-----------------------------------------------------------|
G|----1----------5-----------------------------------------------------------|
D|----2----------6-----------------------------------------------------------|
A|----2----------6-----------------------------------------------------------|
E|---------------4-----------------------------------------------------------| x4



************************************

| /   slide up
| \   slide down
| h   hammer-on
| p   pull-off
| ~   vibrato
| +   harmonic
| x   Mute note
| b   Bend
| pb  Pre-bend
| br  Bend release
| pbr Pre-bend release
| brb Bend release bend

************************************
Добавлено: 11.06.2015
Другие материалы по этой песне:
  • Аккорды и текст

Страница создана 08.08.2014
http://primanota.ru/cherry-glazerr/bloody-bandaid-chords.htm
Привет, Гость.
Предлагаем пройти революционный курс по гитаре.
Подарок от PrimaNota.Ru, забирай!