PrimaNota.ru - самый крупный в мире бесплатный архив песенных текстов, аккордов, табулатур и нот


Cherri Bomb - Paper Doll - таба, видео

Регистрация Запомнить меня
Войти через:  Facebook Google Twitter Vk Yandex Mail.ru

Cherri Bomb - Paper Doll - таба, видео

Печатать
Просмотров: 89
Cherri Bomb-Paper Doll

Tuning: Standard

Intro 
e|-----------------|
B|-----------------|
G|-----------------|
D|--9-9-9-9-9------|
A|-----------------|
E|-----------------|

Main Riff
e|----------------------------------------------------------|
B|----------------------------------------------------------|
G|-----------------------------------------------------9b---|
D|-----------------------------------------------------x----|
A|-------------5b--------------------------------5b----7b---|
E|-7-7-7-7-5-7----7--7-7-7-7-5-7-0~--7-7-7-7-5-7----7-------|

e|---------------------------------------------------------------------------|
B|---------------------------------------------------------------------------|
G|---------------------------------------------------------------------------|
D|---------------------------------------------------------------------------|
A|-------------5b--------------------------------5b----7p0-5p0-------------5b|
E|-7-7-7-7-5-7----7--7-7-7-7-5-7-0~--7-7-7-7-5-7----7----------5p0-6p0-7p0---|

e|----------------------------------------------------------|
B|----------------------------------------------------------|
G|-----------------------------------------------------9b---|
D|-----------------------------------------------------x----|
A|-------------5b--------------------------------5b----7b---|
E|-7-7-7-7-5-7----7--7-7-7-7-5-7-0~--7-7-7-7-5-7----7-------|

Verse-2x
e|----------------------------------------------------------|
B|----------------------------------------------------------|
G|-----------------------------------------------------9b---|
D|-----------------------------------------------------x----|
A|-------------5b--------------------------------5b----7b---|
E|-7-7-7-7-5-7----7--7-7-7-7-5-7-0~--7-7-7-7-5-7----7-------|

e|---------------------------------------------------------------------------|
B|---------------------------------------------------------------------------|
G|---------------------------------------------------------------------------|
D|---------------------------------------------------------------------------|
A|-------------5b--------------------------------5b----7p0-5p0-------------5b|
E|-7-7-7-7-5-7----7--7-7-7-7-5-7-0~--7-7-7-7-5-7----7----------5p0-6p0-7p0---|

Pre-Chorus
e|-----------------|
B|-----------------|
G|-----------------|
D|--9-9-9-9-9------|
A|-----------------|
E|-----------------|
                                                         
Chorus-2x
e|----------------------------------------|
B|----------------------------------------| 
G|----------------------------------------|
D|-5-5-5-5--12-12-12-12--2-2-2-2--7-7-7-7-|
A|-5-5-5-5--12-12-12-12--2-2-2-2--7-7-7-7-|
E|-3-3-3-3--10-10-10-10--0-0-0-0--5-5-5-5-|

Post-Chorus
e|-----------------|
B|-----------------|
G|-----------------|
D|--9-9-9-9-9------|
A|-----------------|
E|-----------------|

Verse-SAME

Chorus-SAME

Post-Chorus-SAME
WITH
e|---------------------------------------|
B|---------------------------------------|
G|---------------------------------------|
D|-5-5-5--7-7-7--9-9-9--14-14-14---------|
A|-5-5-5--7-7-7--9-9-9--14-14-14---------|
E|-3-3-3--5-5-5--7-7-7--12-12-12---------|

Bridge-2x
e|-----------------------------------|
B|-----------------------------------|
G|-12-11--4--7---12--11-4--7-9/11----|
D|-x---x--x--x---x---x--x--x-x-x-----|
A|-10--9--2--5---10--9--2--5-7/9-----|
E|-----------------------------------|


Chrous-SAME

Outro-4x
e|-------------------------------|
B|-------------------------------|
G|----9--------------7-7-7-7-8-9-|
D|-9--9--9--5--6--7--7-7-7-7-8-9-|
A|-9--7--9--5--6--7--5-5-5-5-6-7-|
E|-7-----7--3--4--5--------------|

e|---------------------------------|
B|---------------------------------|
G|----9--------------7-7-7-7-------|
D|-9--9--9--5--6--7--7-7-7-7--0--7-|
A|-9--7--9--5--6--7--5-5-5-5--0--7-|
E|-7-----7--3--4--5-----------0--5-|
Добавлено: 25.09.2013
Другие материалы по этой песне:
  • Аккорды и текст

Страница создана 25.09.2013
http://primanota.ru/cherri-bomb/paper-doll-chords.htm
Привет, Гость.
Предлагаем пройти революционный курс по гитаре.
Подарок от PrimaNota.Ru, забирай!