PrimaNota.ru - самый крупный в мире бесплатный архив песенных текстов, аккордов, табулатур и нот


Cherri Bomb - Mirror Mirror - таба, видео

Регистрация Запомнить меня
Войти через:  Facebook Google Twitter Vk Yandex Mail.ru

Cherri Bomb - Mirror Mirror - таба, видео

Печатать
Просмотров: 77
-------------------------------------------------------------------------------
                             MIRROR MIRROR - CHERRI BOMB
-------------------------------------------------------------------------------
Tabbed by: Dannyboy     
E-mail: dcolergove@gmail.com

Tuning:Drop D (DADGBe)

INTRO RIFF

e|---------------------------------------------------------------------------|
B|---------------------------------------------------------------------------|
G|---------------------------------------------------------------------------|
D|-------------------1-----------2-----------1-------------------------------|
A|0-3-0-5------0-3-0-------0-3-0-------0-3-0---------------------------------|
D|--------0-0----------0-0---------0-0---------0-0---------------------------|

e|---------------------------------------------------------------------------|
B|---------------------------------------------------------------------------|
G|---------------------------------------------------------------------------|
D|------------------1-----------2------------3-3---3-------------------------|
A|0-3-0-5-----0-3-0-------0-3-0-------0-3-0--3-3---3-------------------------|
D|--------0-0---------0-0---------0-0--------3-3---3-------------------------|

e|---------------------------------------------------------------------------|
B|---------------------------------------------------------------------------|
G|---------------------------------------------------------------------------|
D|-------------------1-----------2-----------1-------------------------------|
A|0-3-0-5------0-3-0-------0-3-0-------0-3-0---------------------------------|
D|--------0-0----------0-0---------0-0---------0-0---------------------------|

e|---------------------------------------------------------------------------|
B|---------------------------------------------------------------------------|
G|---------------------------------------------------------------------------|
D|------------------1-----------2------------3-3---3-3-3---------------------|
A|0-3-0-5-----0-3-0-------0-3-0-------0-3-0--3-3---3-3-3---------------------|
D|--------0-0---------0-0---------0-0--------3-3---3-3-3---------------------|

Lead guitar during intro 

e|---------------------------------------------------------------------------|
B|---------------------------------------------------------------------------|
G|-11-11-11-11----12-12-12-12----14-14-14-14----12-12-12-12------------------|
D|---------------------------------------------------------------------------|
A|-9--9--9--9-----10-10-10-10----12-12-12-12----10-10-10-10------------------|
D|---------------------------------------------------------------------------|

e|---------------------------------------------------------------------------|
B|---------------------------------------------------------------------------|
G|-11-11-11-11----12-12-12-12----14-14-14-14----17-17-17-17------------------|
D|---------------------------------------------------------------------------|
A|-9--9--9--9-----10-10-10-10----12-12-12-12----15-15-15-15------------------|
D|---------------------------------------------------------------------------|


VERSE 

e|---------------------------------------------------------------------------|
B|---------------------------------------------------------------------------|
G|---------3-3-3--------3-3-3------------------------------------------------|
D|-5-5-5---3-3-3--3-3---3-3-3--1-1---2-2-2-3-5-5---5-5-5-5-5--5-5-5----------|
A|-5-5-5---1-1-1--3-3---1-1-1--1-1---3-3-3-3-5-5---3-5-3-5-3--3-5-5----------|
D|-5-5-5----------3-3----------1-1---2-2-2-3-5-5---3-5-3-5-3--3-5-5----------|

e|---------------------------------------------------------------------------|
B|---------------------------------------------------------------------------|
G|---------3-3-3--------3-3-3------------------------------------------------|
D|-5-5-5---3-3-3--3-3---3-3-3--1-1---2-2-2-3-5-5---4-5--3--------------------|
A|-5-5-5---1-1-1--3-3---1-1-1--1-1---3-3-3-3-5-5---5-5--3--------------------|
D|-5-5-5----------3-3----------1-1---2-2-2-3-5-5---5-5--3--------------------|

BRIDGE (I'll find a way...)

e|---------------------------------------------------------------------------|
B|---------------------------------------------------------------------------|
G|-----10--10-10--10-10-10--10-9--------10--10-10--10-10-10--5-5-------------|
D|-----10--10-10--10-10-10--10-10-------10--10-10--10-10-10--5-5-------------|
A|-----8---8--8---8--8--8---8--7--------8---8--8---8--8--8---3-3-------------|
D|-0-0------------------------------0-0--------------------------------------|

e|---------------------------------------------------------------------------|
B|---------------------------------------------------------------------------|
G|-----10--10-10--10-10-10--10-9--------10--10-10-10--5-5-5-5-5--------------|
D|-----10--10-10--10-10-10--10-10-------10--10-10-10--5-5-5-5-5--------------|
A|-----8---8--8---8--8--8---8--7--------8---8--8--8---3-3-3-3-3--------------|
D|-0-0------------------------------0-0--------------------------------------|

1st CHORUS (Mirror mirror, what do you see...)

e|---------------------------------------------------------------------------|
B|---------------------------------------------------------------------------|
G|---------------------------------------------------------------------------|
D|-3----2-1----5-----------------------1-----------2------------1------------|
A|-3----2-1----5----0-3-0-5------0-3-0-------0-3-0--------0-3-0--------0-3-0-|
D|-3----2-1----5------------0-0----------0-0---------0-0----------0-0--------|

e|---------------------------------------------------------------------------|
B|---------------------------------------------------------------------------|
G|---------------------------------------------------------------------------|
D|-3----2-1----5------------------------1-----------2-------------3-3--3-----|
A|-3----2-1----5----0-3-0-5-------0-3-0-------0-3-0--------0-3-0--3-3--3-----|
D|-3----2-1----5------------0-0----------0-0---------0-0----------3-3--3-----|

During the next verse, mute some chords between each chord.

Clean part - Breakdown  (Don't want your sympathy...)

e|---------------------------------------------------------------------------|
B|---------------------------------------------------------------------------|
G|----0-----0----2-----2----------------0---0--2---2-------------------------|
D|---0-----0------0-----0--------------0---0----0---0------------------------|
A|--1-----3-----3-----3---------------1---3---3---3--------------------------|
D|-1-----2-----3-----4---------------1---2---3---4---------------------------|

e|---------------------------------------------------------------------------|
B|---------------------------------------------------------------------------|
G|-0-0--0--0-0---0-0--0--0-0----0-0--0--0-0---0-0--0--0-0--------------------|
D|-0-0--0--0-0---0-0--0--0-0----0-0--0--0-0---0-0--0--0-0--------------------|
A|-1-1--1--1-1---1-1--1--1-1----3-3--3--3-3---3-3--3--3-3--------------------|
D|-1-1--1--1-1---1-1--1--1-1----2-2--2--2-2---2-2--2--2-2--------------------|

e|---------------------------------------------------------------------------|
B|---------------------------------------------------------------------------|
G|-2-2--2--2-2---2-2--2--2-2----2-2--2--2-2---2-2--2--2-2--------------------|
D|-0-0--0--0-0---0-0--0--0-0----0-0--0--0-0---0-0--0--0-0--------------------|
A|-3-3--3--3-3---3-3--3--3-3----3-3--3--3-3---3-3--3--3-3--------------------|
D|-3-3--3--3-3---3-3--3--3-3----4-4--4--4-4---4-4--4--4-4--------------------|

e|---------------------------------------------------------------------------|
B|---------------------------------------------------------------------------|
G|---------------------------------------------------------------------------|
D|-1-1--1-1-1--1-2-2--2-2-2--2-3-3--3-3-3--3-4-4--4-4-4--4-------------------|
A|-1-1--1-1-1--1-3-3--3-3-3--3-3-3--3-3-3--3-5-5--5-5-5--5-------------------|
D|-1-1--1-1-1--1-2-2--2-2-2--2-3-3--3-3-3--3-4-4--4-4-4--5-------------------|


e|---------------------------------------------------------------------------|
B|---------------------------------------------------------------------------|
G|---------------------------------------------------------------------------|
D|-1-1--1-1-1--1-2-2--2-2-2--2-3-3--3-3-3--3-4-4--4-4-4--4-5---3-5----3-3-3--|
A|-1-1--1-1-1--1-3-3--3-3-3--3-3-3--3-3-3--3-5-5--5-5-5--5-5---3-5----3-3-3--|
D|-1-1--1-1-1--1-2-2--2-2-2--2-3-3--3-3-3--3-4-4--4-4-4--5-5---3-5----3-3-3--|

SOLO 

e|-----6-6---6---6-6------6-6---6------------6-6---6---6-6------6-6----------|
B|-----6-6---6---6-6------6-6---6------------6-6---6---6-6------6-6----------|
G|---------------------------------------------------------------------------|
D|-5-5-----5---5------5-5-----5---5-3-3--5-5-----5---5------5-5----5---------|
A|---------------------------------------------------------------------------|
D|---------------------------------------------------------------------------|

e|-10-----10-------------8---------6----6-----8-------10--10--10--10--10-----|
B|-13b15--13b15br13-11---11b13-----9b11-9b11--11b13---13b15br13b15br13b16----|
G|---------------------------------------------------------------------------|
D|---------------------------------------------------------------------------|
A|---------------------------------------------------------------------------|
D|---------------------------------------------------------------------------|

e|-8------6----6-------------------------------------------------------------|
B|-11b13--9b11-9b11---8-10-7---8---10----13-13-13-13-------------------------|
G|---------------------------------------------------------------------------|
D|---------------------------------------------------------------------------|
A|---------------------------------------------------------------------------|
D|---------------------------------------------------------------------------|

e|-8------6----6------------11--11--11--11--11-------------------------------|
B|-11b13--9b11-9b11---8-10--16b18br16b18br16b19------------------------------|
G|---------------------------------------------------------------------------|
D|---------------------------------------------------------------------------|
A|---------------------------------------------------------------------------|
D|---------------------------------------------------------------------------|

e|-8------6----6-------------------------------------------------------------|
B|-11b13--9b11-9b11---8-10-7---8---10---8---7---8---10---13-13-13-13-10------|
G|---------------------------------------------------------------------------|
D|---------------------------------------------------------------------------|
A|---------------------------------------------------------------------------|
D|---------------------------------------------------------------------------|



************************************

| /   slide up
| \   slide down
| h   hammer-on
| p   pull-off
| ~   vibrato
| +   harmonic
| x   Mute note
| b   Bend
| pb  Pre-bend
| br  Bend release
| pbr Pre-bend release
| brb Bend release bend

************************************
Добавлено: 21.07.2013
Другие материалы по этой песне:
  • Аккорды и текст

Страница создана 21.07.2013
http://primanota.ru/cherri-bomb/mirror-mirror-chords.htm
Привет, Гость.
Предлагаем пройти революционный курс по гитаре.
Подарок от PrimaNota.Ru, забирай!