PrimaNota.ru - самый крупный в мире бесплатный архив песенных текстов, аккордов, табулатур и нот


Cherri Bomb - Let It Go - таба, видео

Регистрация Запомнить меня
Войти через:  Facebook Google Twitter Vk Yandex Mail.ru

Cherri Bomb - Let It Go - таба, видео

Печатать
Просмотров: 169
Уроки эстрадного вокала в Санкт-Петербурге
Artist: Cherri Bomb
Album: Stark
Tuning: Standard

I'm gonna tab both the rhythm and lead guitar parts, so this tab might be a tad 
bit long. First is the rhythm guitar.

**UPDATE 7.3.12**

Fixed the solo :D

Intro

e|---------------------------------|             |-------------|
B|---------------------------------|             |-------------|
G|---------------------------------| (x6) then   |--12-12-12---|
D|--9-7---------------9-7----------|             |--12-12-12---|
A|--------9-7---------------9-5-7--|             |--10-10-10---|
E|--------------10-7---------------|             |-------------|

Verse 1

e|----------------------------------------------------------------------------------|
B|----------------------------------------------------------------------------------|
G|------------------------------------8888888888888888------------------------------|
D|--99999999999999999999999999999999--8888888888888888--5555555555555555--22222222--|  (x2)
A|--99999999999999999999999999999999--6666666666666666--5555555555555555--22222222--|
E|--77777777777777777777777777777777--------------------3333333333333333--00000000--|
    ********************************  ****************  ****************  ********

Pre-Chorus

e|----------------------------------------------------------------------------------------|
B|----------------------------------------------------------------------------------------|
G|----------------------------------------------------------------------------------------|
D|--9-7-------------9-7----------9-7----------------9-7-----------9-7---------------9-7---|
A|--------9-7-------------9-5-7--------9-7----------------9-5-7--------9-7----------------|
E|-------------10-7---------------------------10-7-----------------------------10-7-------|

Chorus (I didn't have enough room to actually show how much the chords were 
strummed, so just listen to the song to figure it out)

e|--------------------------------|
B|--------------------------------|
G|--------------------------------|
D|--9--7--2--5--7--9--7--2--5--7--|
A|--9--7--2--5--7--9--7--2--5--7--|
E|--7--5--0--3--5--7--5--0--3--5--|

Post-Chorus

e|--------------------------------------------------------------------------|
B|--------------------------------------------------------------------------|
G|----------------------------------------------------------------12-12-12--|
D|--9-7---------------9-7----------9-7---------------9-7----------12-12-12--|
A|--------9-7---------------9-5-7--------9-7---------------9-5-7--10-10-10--|
E|--------------10-7----------------------------10-7------------------------|

repeat verse 1

repeat pre-chorus

repeat chorus

repeat post-chorus

Bridge

e|--------------------------|
B|--3-----2-----5-----3-----|
G|--------------------------|  (x5)
D|-----4-----4-----4-----4--|
A|--------------------------|
E|--------------------------|

During the Solo

e|--------------------------------|
B|--------------------------------|
G|--------------------------------|
D|--9--7--2--5--7--9--7--2--5--7--|
A|--9--7--2--5--7--9--7--2--5--7--|
E|--7--5--0--3--5--7--5--0--3--5--|

Silence, then

e|--------------------------------|
B|--------------------------------|
G|--------------------------------|
D|--2--5--7--9--5--2--5--7--5--7--|
A|--2--5--7--9--5--2--5--7--5--7--|
E|--0--3--5--7--5--0--3--5--3--5--|

Outro

e|---------------------------------|             |------------|
B|---------------------------------|             |------------|
G|---------------------------------| (x4) end on |--12-12-12--|
D|--9-7---------------9-7----------|             |--12-12-12--|
A|--------9-7---------------9-5-7--|             |--10-10-10--| 
E|--------------10-7---------------|             |------------|

---------------------------
now for the lead guitar. there are some over dubbed parts so i'll try to tab out everything.

Intro (i'm not sure if this is exactly right but it sounds good to me)

e|-----------------------------------|                   
B|-----------------------------------|  
G|-----------------------------------|  
D|--7h9-9-9-7h9-9-9-7h9-9-9-7h9-9-9--|  
A|-----------------------------------|
E|-----------------------------------|

also, this part plays

e|------------------------------|            |------------|
B|------------------------------|            |------------|
G|--9br-7--6br-4----------------|            |--12-12-12--|
D|----------------9br-7--6br-4--| (x2)  then |--12-12-12--|
A|------------------------------|            |--10-10-10--|
E|------------------------------|            |------------|

Verse 1

e|--------------------------------------------------------------------------|
B|--------------------------------------------------------------------------|
G|--------------------------------------------------------------------------|
D|------0-----0-----0-----0-----0-----0-----0-----0-----4-----4-----4-----4-|
A|--2-2---2-2---2-2---2-2---2-2---2-2---2-2---2-2---6-6---6-6---6-6---6-6---|
E|--------------------------------------------------------------------------|
    * *   * *   * *   * *   * *   * *   * *   * *   * *   * *   * *   * *   |

------------------------------------|
------------------------------------|
------------------------------------|
------------------------------------|x2)
----2-----2-----2-----2-----2-----2-|
3-3---3-3---3-3---3-3---0-0---0-0---|
* *   * *   * *   * *   * *   * *
  
Pre- Chorus, chorus, and Post-chorus are the same as rhythm.

Repeat verse 1.

repeat pre-chorus

repeat chorus

repeat post-chorus

Bridge (you keep this going till the solo, and you eventually let up the palm mute 
right before the solo)

e|---------------------------------------------------------|
B|---------------------------------------------------------|
G|---------------------------------------------------------|
D|---------------------------------------------------------|
A|--2-2-2-2-2-2-2-2-2-2-2-2-2-2-2-2-2-2-2-2-2-2-2-2-2-2-2--|
E|---------------------------------------------------------|
    * * * * * * * * * * * * * * * * * * * * * * * * * * * 

Solo

e|----------------------------------------------------------------------------------15b----17b--|
B|-----------------------------------------------------------------------15b-15~-12-----12------|
G|--------------------------------------14-14-13-14-14-13-14-14-13-14-14------------------------|
D|--12-13-13-12-13-13-12-13-13-12-13-13---------------------------------------------------------|
A|----------------------------------------------------------------------------------------------|
E|----------------------------------------------------------------------------------------------|

e|-------------------------------------14----14b-14~--|
B|--1212121212151515151510101010141414----12----------|
G|------(alternate pick)------------------------------|
D|----------------------------------------------------|
A|----------------------------------------------------|
E|----------------------------------------------------|

e|------------------------------------------|
B|--7/(slide up while alternate picking)----|
G|------------------------------------------|
D|------------------------------------------|
A|------------------------------------------|
E|------------------------------------------|

silence, then you start from the chorus like the rhythm guitar does.

Outro

e|------------------------------|
B|------------------------------|
G|--9br-7--6br-4----------------|
D|----------------9br-7--6br-4--|  
A|------------------------------|
E|------------------------------|

end on

e|------------|
B|------------|
G|--12-12-12--|
D|--12-12-12--|
A|--10-10-10--|
E|------------|

That's it! It's such a fun song to play, and Cherri Bomb are some talented group 
of girls! Rate if you feel like it and if you want to point out any corrections, 
please comment! Keep on rockin!
Добавлено: 04.06.2013
Другие материалы по этой песне:
  • Аккорды и текст

Страница создана 04.06.2013
http://primanota.ru/cherri-bomb/let-it-go-chords.htm
Привет, Гость.
Предлагаем пройти революционный курс по гитаре.
Подарок от PrimaNota.Ru, забирай!