PrimaNota.ru - самый крупный в мире бесплатный архив песенных текстов, аккордов, табулатур и нот


Chen Tianwen - Unbelievable I So Stunned Like Vegetable - аккорды и текст, видео

Регистрация Запомнить меня
Войти через:  Facebook Google Twitter Vk Yandex Mail.ru

Chen Tianwen - Unbelievable I So Stunned Like Vegetable - аккорды и текст, видео

Печатать
Просмотров: 46
Unbelievable I So Stunned Like Vegetable
Chen Tianwen
Unbelievable - I so stunned like vegetable
Capo 2

A
Un... Un... Un... Un...

             F#m                        E
Unbelievable  that's  what you are  

 A                         E                     A
Come be my coffee table and I'll be your sofa

A
Un... Un... Un... Un...
            F#m              E
Unbelievable  so near  yet so far

  A                          E           A
Please be the metal cable to my cable car

Bm         C#m           Bm
You blossom like a flower
                                  E
I so stunned like vegetable

       A
My girl you are

E       E       E       E           E
Un... Un... Un... Un... Un... Un... Un... Un...

 A      
Unbelievable

[Verse2]
A
Un... Un... Un... Un...

             F#m                         E
Unbelievable  that's  what you are  

 A                         E                     A
Come be my coffee table and I'll be your sofa

A
Un... Un... Un... Un...
            F#m              E
Unbelievable  so near  yet so far

  A                          E           A
Please be the metal cable to my cable car

Bm         C#m           Bm
You blossom like a flower
                                  E
I so stunned like vegetable

       A
My girl you are

E       E       E       E           E
Un... Un... Un... Un... Un... Un... Un... Un...

 A      
Unbelievable

Tab Version with corny intro

Intro
e|--~~~11--14--11-11-11--9-7--4-4-4-4-7--4-4-4-0--------------------------|
B|----------------------------------------------4--/7---------------------|
G|-----------------------------------------------------------6---/8-------|
D|-----------------------------------------------------4--/6--------------|
A|------------------------------------------------------------------------|
E|------------------------------------------------------------------------|

e|------------------------------------------------------------------------|
B|----------------^14--12-------------------------------------------------|
G|--/11-11----11----------------------------------------------------------|
D|---------13-------------------------------------------------------------|
A|------------------------------------------------------------------------|
E|------------------------------------------------------------------------|


[Verse 1 & 2]
Fill 1 (0:25) & (0:41) & (1:17) & (1:34)
e|------------------------------------------------------------------------|
B|--7-9-7-----------------------------------------------------------------|
G|--------8-6---/8--------------------------------------------------------|
D|------------9-----------------------------------------------------------|
A|------------------------------------------------------------------------|
E|------------------------------------------------------------------------|

Fill 2 (0:33) & (1:25) 
e|----7-7---7-7----7------------------------------------------------------|
B|--7-----7-----7----7----------------------------------------------------|
G|------------------------------------------------------------------------|
D|------------------------------------------------------------------------|
A|------------------------------------------------------------------------|
E|------------------------------------------------------------------------|

Fill 3 (0:50) & (1:42)
e|-------7-9-7---7-------7-9-7----~~9--~~11--~~12---~~14------------------|
B|--/7-9-------9------7-9------9------------------------------------------|
G|------------------------------------------------------------------------|
D|------------------------------------------------------------------------|
A|------------------------------------------------------------------------|
E|------------------------------------------------------------------------|

Fill 4 (1:07)
e|----------------7-9-----------------------------------------------------|
B|------------7-9---------------------------------------------------------|
G|-------8-11-------------------------------------------------------------|
D|--/9-11-----------------------------------------------------------------|
A|------------------------------------------------------------------------|
E|------------------------------------------------------------------------|

[Outro] (1:59)
e|---------------7-9--7-9-7-------7~~-------------------------------------|
B|-----------7-9------------9-7-9-----------------------------------------|
G|------8-11--------------------------------------------------------------|
D|--/9-11-----------------------------------------------------------------|
A|------------------------------------------------------------------------|
E|------------------------------------------------------------------------|

Добавлено: 27.11.2015
Другие материалы по этой песне:
  • Аккорды и текст

Страница создана 27.11.2015
http://primanota.ru/chen-tianwen/unbelievable-i-so-stunned-like-vegetable-chords.htm
Привет, Гость.
Предлагаем пройти революционный курс по гитаре.
Подарок от PrimaNota.Ru, забирай!