PrimaNota.ru - самый крупный в мире бесплатный архив песенных текстов, аккордов, табулатур и нот


Chemical Vocation - Backseat Driver - таба, видео

Регистрация Запомнить меня
Войти через:  Facebook Google Twitter Vk Yandex Mail.ru

Chemical Vocation - Backseat Driver - таба, видео

Печатать
Просмотров: 232
Made by: Daniel Perez  (H)

If some one knows how to play the "Break" send me a mail.


Backseat Driver

Tuned: Drop D



Intro:

------------------------------------------------------------------------------|
------------------------------------------------------------------------------|
------------------------------------------------------------------------------|
--8-8-8-8---11--4-4-4/6-6-6-6-----8-8-8-8---11--4-4-4/6-6-6-6-----8-8-8-8-----|
--8-8-8-8---11--4-4-4/6-6-6-6-----8-8-8-8---11--4-4-4/6-6-6-6-----8-8-8-8-----|
--8-8-8-8---11--4-4-4/6-6-6-6-----8-8-8-8---11--4-4-4/6-6-6-6-----8-8-8-8-----|



------------------------------------------------------------------------------|
------------------------------------------------------------------------------|
------------------------------------------------------------------------------|
--8--8-8-8-8--8-8-8-8-8--8-8-8---4--4-4-4-4--4-4-4-4-4--4-4-4-----------------|
--8--8-8-8-8--8-8-8-8-8--8-8-8---4--4-4-4-4--4-4-4-4-4--4-4-4-----------------|
--8--8-8-8-8--8-8-8-8-8--8-8-8---4--4-4-4-4--4-4-4-4-4--4-4-4-----------------|


------------------------------------------------------------------------------|
------------------------------------------------------------------------------|
------------------------------------------------------------------------------|
--1--1-1-1-1--6--6-6-6-6--8--8-8-8-8------------------------------------------|
--1--1-1-1-1--6--6-6-6-6--8--8-8-8-8------------------------------------------|
--1--1-1-1-1--6--6-6-6-6--8--8-8-8-8------------------------------------------|


------------------------------------------------------------------------------|
------------------------------------------------------------------------------|
------------------------------------------------------------------------------|
--8--8-8-8-8--8-8-8-8-8--8-8-8---4--4-4-4-4--4-4-4-4-4--4-4-4-----------------|
--8--8-8-8-8--8-8-8-8-8--8-8-8---4--4-4-4-4--4-4-4-4-4--4-4-4-----------------|
--8--8-8-8-8--8-8-8-8-8--8-8-8---4--4-4-4-4--4-4-4-4-4--4-4-4-----------------|


------------------------------------------------------------------------------|
------------------------------------------------------------------------------|
------------------------------------------------------------------------------|
--1--1-1-1-1--4--4-4-4-4--6--6-6-6-6--6--6-6-6-6-6----------------------------|
--1--1-1-1-1--4--4-4-4-4--6--6-6-6-6--6--6-6-6-6-6----------------------------|
--1--1-1-1-1--4--4-4-4-4--6--6-6-6-6--6--6-6-6-6-6----------------------------|



Verse:

------------------------------------------------------------------------------|
------------------------------------------------------------------------------|
------------------------------------------------------------------------------|
--8-8----8/4-4----4/-1---1--1--1---1--1/6-6---6--6--6---6--6------------------|
--8-8----8/4-4----4/-1---1--1--1---1--1/6-6---6--6--6---6--6------------------|
--8-8----8/4-4----4/-1---1--1--1---1--1/6-6---6--6--6---6--6------------------|


------------------------------------------------------------------------------|
------------------------------------------------------------------------------|
------------------------------------------------------------------------------|
--4-4----4/8-8---------------------8---8--8--8---8--8/-11---------------------|
--4-4----4/8-8---------------------8---8--8--8---8--8/-11---------------------|
--4-4----4/8-8---------------------8---8--8--8---8--8/-11---------------------|


Chorus:

------------------------------------------------------------------------------|
------------------------------------------------------------------------------|
------------------------------------------------------------------------------|
--8--8-8-8-8--8-8-8-8-8--8-8-8---4--4-4-4-4--4-4-4-4-4--4-4-4-----------------|
--8--8-8-8-8--8-8-8-8-8--8-8-8---4--4-4-4-4--4-4-4-4-4--4-4-4-----------------|
--8--8-8-8-8--8-8-8-8-8--8-8-8---4--4-4-4-4--4-4-4-4-4--4-4-4-----------------|


------------------------------------------------------------------------------|
------------------------------------------------------------------------------|
------------------------------------------------------------------------------|
--1--1-1-1-1--6--6-6-6-6--8--8-8-8-8------------------------------------------|
--1--1-1-1-1--6--6-6-6-6--8--8-8-8-8------------------------------------------|
--1--1-1-1-1--6--6-6-6-6--8--8-8-8-8------------------------------------------|


------------------------------------------------------------------------------|
------------------------------------------------------------------------------|
------------------------------------------------------------------------------|
--8--8-8-8-8--8-8-8-8-8--8-8-8---4--4-4-4-4--4-4-4-4-4--4-4-4-----------------|
--8--8-8-8-8--8-8-8-8-8--8-8-8---4--4-4-4-4--4-4-4-4-4--4-4-4-----------------|
--8--8-8-8-8--8-8-8-8-8--8-8-8---4--4-4-4-4--4-4-4-4-4--4-4-4-----------------|


------------------------------------------------------------------------------|
------------------------------------------------------------------------------|
------------------------------------------------------------------------------|
--1--1-1-1-1--4--4-4-4-4--6--6-6-6-6--6-6-6-6-6-------------------------------|
--1--1-1-1-1--4--4-4-4-4--6--6-6-6-6--6-6-6-6-6-------------------------------|
--1--1-1-1-1--4--4-4-4-4--6--6-6-6-6--6-6-6-6-6-------------------------------|



Intro:

------------------------------------------------------------------------------|
------------------------------------------------------------------------------|
------------------------------------------------------------------------------|
--8-8-8-8---11--4-4-4/6-6-6-6-----8-8-8-8---11--4-4/6-6-6---------------------|
--8-8-8-8---11--4-4-4/6-6-6-6-----8-8-8-8---11--4-4/6-6-6---------------------|
--8-8-8-8---11--4-4-4/6-6-6-6-----8-8-8-8---11--4-4/6-6-6---------------------|



Verse:

------------------------------------------------------------------------------|
------------------------------------------------------------------------------|
------------------------------------------------------------------------------|
--8-8-8-8-8-8-8-8-8-8-8-8-8-8-8-8----4-4-4-4-4-4-4-4-4-4-4-4-4-4-4-4----------|
--8-8-8-8-8-8-8-8-8-8-8-8-8-8-8-8----4-4-4-4-4-4-4-4-4-4-4-4-4-4-4-4----------|
--8-8-8-8-8-8-8-8-8-8-8-8-8-8-8-8----4-4-4-4-4-4-4-4-4-4-4-4-4-4-4-4----------|


------------------------------------------------------------------------------|
------------------------------------------------------------------------------|
------------------------------------------------------------------------------|
--1-1-1-1-1-1-1-1-1-1-1-1-1-1-1-1----6-6-6-6-6-6-6-6-6-6-6-6-6-6-6-6----------|
--1-1-1-1-1-1-1-1-1-1-1-1-1-1-1-1----6-6-6-6-6-6-6-6-6-6-6-6-6-6-6-6----------|
--1-1-1-1-1-1-1-1-1-1-1-1-1-1-1-1----6-6-6-6-6-6-6-6-6-6-6-6-6-6-6-6----------|



------------------------------------------------------------------------------|
------------------------------------------------------------------------------|
------------------------------------------------------------------------------|
--4---4--4-4---4--4--8---8--8-8---8--8----------------------------------------|
--4---4--4-4---4--4--8---8--8-8---8--8----------------------------------------|
--4---4--4-4---4--4--8---8--8-8---8--8----------------------------------------|


------------------------------------------------------------------------------|
------------------------------------------------------------------------------|
------------------------------------------------------------------------------|
--4---4--4-4---4--4--6---6--6-6---6--6--8---8--8-8---8--8--11-----------------|
--4---4--4-4---4--4--6---6--6-6---6--6--8---8--8-8---8--8--11-----------------|
--4---4--4-4---4--4--6---6--6-6---6--6--8---8--8-8---8--8--11-----------------|


Chorus:

------------------------------------------------------------------------------|
------------------------------------------------------------------------------|
------------------------------------------------------------------------------|
--8--8-8-8-8--8-8-8-8-8--8-8-8---4--4-4-4-4--4-4-4-4-4--4-4-4-----------------|
--8--8-8-8-8--8-8-8-8-8--8-8-8---4--4-4-4-4--4-4-4-4-4--4-4-4-----------------|
--8--8-8-8-8--8-8-8-8-8--8-8-8---4--4-4-4-4--4-4-4-4-4--4-4-4-----------------|


------------------------------------------------------------------------------|
------------------------------------------------------------------------------|
------------------------------------------------------------------------------|
--1--1-1-1-1--6--6-6-6-6--8--8-8-8-8------------------------------------------|
--1--1-1-1-1--6--6-6-6-6--8--8-8-8-8------------------------------------------|
--1--1-1-1-1--6--6-6-6-6--8--8-8-8-8------------------------------------------|


------------------------------------------------------------------------------|
------------------------------------------------------------------------------|
------------------------------------------------------------------------------|
--8--8-8-8-8--8-8-8-8-8--8-8-8---4--4-4-4-4--4-4-4-4-4--4-4-4-----------------|
--8--8-8-8-8--8-8-8-8-8--8-8-8---4--4-4-4-4--4-4-4-4-4--4-4-4-----------------|
--8--8-8-8-8--8-8-8-8-8--8-8-8---4--4-4-4-4--4-4-4-4-4--4-4-4-----------------|


------------------------------------------------------------------------------|
------------------------------------------------------------------------------|
------------------------------------------------------------------------------|
--1--1-1-1-1--4--4-4-4-4--6--6-6-6-6------------------------------------------|
--1--1-1-1-1--4--4-4-4-4--6--6-6-6-6------------------------------------------|
--1--1-1-1-1--4--4-4-4-4--6--6-6-6-6------------------------------------------|


Break:

------------------------------------------------------------------------------|
------------------------------------------------------------------------------|
------------------------------------------------------------------------------|
--6~----11~----4~----5/6~-----------------------------------------------------|
--6~----11~----4~----5/6~-----------------------------------------------------|
--6~----11~----4~----5/6~-----------------------------------------------------|


------------------------------------------------------------------------------|
------------------------------------------------------------------------------|
------------------------------------------------------------------------------|
------------------------------------------------------------------------------|
------------------------------------------------------------------------------|
------------------------------------------------------------------------------|


------------------------------------------------------------------------------|
------------------------------------------------------------------------------|
------------------------------------------------------------------------------|
--8-8-8--11-11-11---8-8--11-11-11---8-8--11-----------------------------------|  x 8
--8-8-8--11-11-11---8-8--11-11-11---8-8--11-----------------------------------|
--8-8-8--11-11-11---8-8--11-11-11---8-8--11-----------------------------------|





------------------------------------------------------------------------------|
------------------------------------------------------------------------------|
------------------------------------------------------------------------------|
--4-4-4-4-4-4-4-4--8-8-8-8-8~-------4---4---4---4---6-6-----------------------|
--4-4-4-4-4-4-4-4--8-8-8-8-8~-------4---4---4---4---6-6-----------------------|
--4-4-4-4-4-4-4-4--8-8-8-8-8~-------4---4---4---4---6-6-----------------------|


Chorus:

------------------------------------------------------------------------------|
------------------------------------------------------------------------------|
------------------------------------------------------------------------------|
--8--8-8-8-8--8-8-8-8-8--8-8-8---4--4-4-4-4--4-4-4-4-4--4-4-4-----------------|
--8--8-8-8-8--8-8-8-8-8--8-8-8---4--4-4-4-4--4-4-4-4-4--4-4-4-----------------|
--8--8-8-8-8--8-8-8-8-8--8-8-8---4--4-4-4-4--4-4-4-4-4--4-4-4-----------------|


------------------------------------------------------------------------------|
------------------------------------------------------------------------------|
------------------------------------------------------------------------------|
--1--1-1-1-1--6--6-6-6-6--8--8-8-8-8------------------------------------------|
--1--1-1-1-1--6--6-6-6-6--8--8-8-8-8------------------------------------------|
--1--1-1-1-1--6--6-6-6-6--8--8-8-8-8------------------------------------------|


------------------------------------------------------------------------------|      x 2
------------------------------------------------------------------------------|
------------------------------------------------------------------------------|
--8--8-8-8-8--8-8-8-8-8--8-8-8---4--4-4-4-4--4-4-4-4-4--4-4-4-----------------|
--8--8-8-8-8--8-8-8-8-8--8-8-8---4--4-4-4-4--4-4-4-4-4--4-4-4-----------------|
--8--8-8-8-8--8-8-8-8-8--8-8-8---4--4-4-4-4--4-4-4-4-4--4-4-4-----------------|


------------------------------------------------------------------------------|
------------------------------------------------------------------------------|
------------------------------------------------------------------------------|
--1--1-1-1-1--4--4-4-4-4--6--6-6-6-6--6-6-6-6-6-------------------------------|
--1--1-1-1-1--4--4-4-4-4--6--6-6-6-6--6-6-6-6-6-------------------------------|
--1--1-1-1-1--4--4-4-4-4--6--6-6-6-6--6-6-6-6-6-------------------------------|


End with:

------------------------------------------------------------------------------|
------------------------------------------------------------------------------|
------------------------------------------------------------------------------|
--8-8--6--8-------------------------------------------------------------------|
--8-8--6--8-------------------------------------------------------------------|
--8-8--6--8-------------------------------------------------------------------|
Добавлено: 04.06.2012
Другие материалы по этой песне:

Страница создана 19.05.2012
http://primanota.ru/chemical-vocation/backseat-driver-chords.htm
Привет, Гость.
Предлагаем пройти революционный курс по гитаре.
Подарок от PrimaNota.Ru, забирай!