PrimaNota.ru - самый крупный в мире бесплатный архив песенных текстов, аккордов, табулатур и нот


Chemical Brothers - We Are The Night - текст песни, бас-таба, видео

Регистрация Запомнить меня
Войти через:  Facebook Google Twitter Vk Yandex Mail.ru

Chemical Brothers - We Are The Night - текст песни, бас-таба, видео

Печатать
Просмотров: 128
Авторы: Tom Rowlands, bill bissett, Ed Simons, Riz Ortolani

Band/Song: Chemical Brothers - We Are The Night
Album: We Are The Night

Tabbed by: RhoninX - http://profile.ultimate-guitar.com/RhoninX/
Email: lisekpl(a)o2.pl
Date: 5.12.2009

Tuning: C Tuning

Verse

      E  E  E  E  E  E  E  E     E  E  E  E  E  E  E  E   
C ||--------------------------|--------------------------|
G ||--------------------------|--------------------------|
D#||--------------------------|--------------------------|
A#||--3-----------3-----------|--3-----------3-----------|
F ||--------1--3--------1--3--|--------1--3--------1--3--|
C ||-----1-----------1--------|-----1-----------1--------|



Chorus

  E  E  E  E  E  E  E  E     E  E  E  E  E  E  E  E   
--------------------------|--------------------------|
--------------------------|--------------------------|
--------------------------|--------------------------|
--------------------------|--------------------------|
--3--3--3--3--3--3--3--3--|--1--1--1--1--1--1--1--1--|
--------------------------|--------------------------|


  E  E  E  E  E  E  E  E     E  E  E  E  E  E  E  E    
--------------------------|--------------------------||
--------------------------|--------------------------||
--------------------------|--------------------------||
--------------------------|--------------------------||
--------------------------|--------------------------||
--1--1--1--1--1--1--1--1--|--1--1--1--1--1--1--1--1--||




Duration Legend
---------------
E - 8th
Добавлено: 13.04.2012
Другие материалы по этой песне:
  • Аккорды и текст

Страница создана 13.04.2012
http://primanota.ru/chemical-brothers/we-are-the-night-chords.htm
Привет, Гость.
Предлагаем пройти революционный курс по гитаре.
Подарок от PrimaNota.Ru, забирай!