PrimaNota.ru - самый крупный в мире бесплатный архив песенных текстов, аккордов, табулатур и нот


Chemical Brothers - Another World - бас-таба, видео

Регистрация Запомнить меня
Войти через:  Facebook Google Twitter Vk Yandex Mail.ru

Chemical Brothers - Another World - бас-таба, видео

Печатать
Просмотров: 212
Уроки эстрадного вокала в Санкт-Петербурге
Авторы: Tom Rowlands, Robert John Schurgin, Anthony Edward Ferguson, Martin Hall, Ed Simons

Band: Chemical Brothers

Song: Another World

Album: Further

tabbed by Damiano Fassari



Intro:
                                                         x3  
G|-------------|-------------|-------------|-------------|-------------|
D|-------------|-------------|-------------|-------------|-------------|
A|-------------|-------------|-------------|-------------|-6-6-6-6-6-8-|
E|-4-4-4-4-4-6-|-4-4-4-4-4-6-|-4-4-4-4-4-6-|-4-4-4-4-4-6-|-------------|

               x2
 |-------------|-------------|
 |-------------|-------------|
 |-------------|-6-6-6-6-6-8-|
 |-4-4-4-4-4-6-|-------------|



Chorus:

 |---------------------------------------------------------------------|
 |---------------------------------------------------------------------|
 |----------------------------------6-6-6-6-6-6-6-6--6-6-6-6-6-6-6-6---|
 |-4-4-4-4-4-4-4-4--4-4-4-4-4-4-4-4------------------------------------|
Добавлено: 28.02.2012
Другие материалы по этой песне:
  • Аккорды и текст

Страница создана 28.02.2012
http://primanota.ru/chemical-brothers/another-world-chords.htm
Привет, Гость.
Предлагаем пройти революционный курс по гитаре.
Подарок от PrimaNota.Ru, забирай!