PrimaNota.ru - самый крупный в мире бесплатный архив песенных текстов, аккордов, табулатур и нот


Chelsea Wolfe - Mer - таба, видео

Регистрация Запомнить меня
Войти через:  Facebook Google Twitter Vk Yandex Mail.ru

Chelsea Wolfe - Mer - таба, видео

Печатать
Просмотров: 329
Уроки эстрадного вокала в Санкт-Петербурге
Artist: Chelsea Wolfe http://www.chelseawolfe.net/
Album: Apokalypsis/Apocalypse
Song: "Mer"


Tuning: D Standard (DGCFAD)



d|-----------------------------------------------------------------|
G|-----------------------------------------------------------------|
C|----------------------8b9br8----------------------8------/-------|
F|-----------------9----------------------------9--------9s/-------|
A|-------------6----------------------------6--------------/-------|
D|----------7----------------------------7-----------------/-------|


d|-----------------------------------------------------------------|
G|-----------------------------------------------------------------|
C|----/-------------4b1/2br4------------------------4------/-------|
F|----/--------4--------------------------------4--------4s/-------| [x2]
A|----/----1-------------------------------1---------------/-------|
D|----s/2------------------------------2-------------------/-------|


d|-----------------------------------------------------------------|
G|-----------------------------------------------------------------|
C|-----------------------------------------------------------------|
F|---------1--------------------------0----------------------------| [x1]
A|------0-----x7-------------------0------x1-----------------------|
D|---2--------------------------1----------------------------------|

(Hollow... courtship...)
d|-----------------------------------------------------------------|
G|-----------------------------------------------------------------|
C|-----------------------------------------------------------------|
F|---------1--------------------------0----------------------------| [x2]
A|------1-----x4-------------------0-----x4------------------------|
D|---2--------------------------1----------------------------------|



d|-----------------------------------------------------------------|
G|-----------------------------------------------------------------|
C|-----------------------------------------------------------------|
F|---------1--------------6------------------4---------------0-----|
A|------1-----x4-------6------x4----------4-----x4--------0-----x4-|
D|---2--------------7------------------5---------------1-----------|


d|-----------------------------------------------------------------|
G|-----------------------------------------------------------------|
C|-----------------------------------------------------------------|
F|---------1----------------------------0--------------------------| [x2]
A|------1-----x4---------------------0-----x4----------------------|
D|---2----------------------------1--------------------------------|


d|-----------------------------------------------------------------|
G|-----------------------------------------------------------------|
C|-----------------------------------------------------------------|
F|---------1-------------------------------------------------------|
A|------1-----x8---------------------------------------------------|
D|---2-------------------------------------------------------------|

(How can you live with yourself...)
d|-----------------------------------------------------------------|
G|-----------------------------------------------------------------|
C|----------------------8b9br8----------------------8------/-------|
F|-----------------9----------------------------9--------9s/-------|
A|-------------6----------------------------6--------------/-------|
D|----------7----------------------------7-----------------/-------|


d|-----------------------------------------------------------------|
G|-----------------------------------------------------------------|
C|----/-------------4b1/2br4------------------------4------/-------|
F|----/--------4--------------------------------4--------4s/-------| [x2]
A|----/----1-------------------------------1---------------/-------|
D|----s/2------------------------------2-------------------/-------|



d|-----------------------------------------------------------------|
G|-----------------------------------------------------------------|
C|-----------------------------------------------------------------|
F|---------1----------------------0--------------------------------|
A|------1-----x7---------------0-----x1----------------------------|
D|---2----------------------1--------------------------------------|

The next verse and chorus follows roughly the same pattern, on to the outro:

d|-----------------------------------------------------------------|
G|-----------------------------------------------------------------|
C|-----------------------------------------------------------------|
F|-----------8-----------------------------------------------------|[until end]
A|--------6--------------------------------------------------------|
D|-----7-----------------------------------------------------------|

There's also a 2nd lead guitar in this segment:


d|-----------------------------------------------------------------|
G|--------------11-------------------------------------------------|
C|-----------8-----x8----------------------------------------------|
F|--------8--------------------------------------------------------|
A|-----------------------------------------------------------------|
D|-----------------------------------------------------------------|

d|-----------------------------------------------------------------|
G|-------------11b12br11--------9----------------------------------|
C|----------8------------------------------------------------------|
F|-------8------------------8--------------------------------------| [until end]
A|-----------------------------------------------------------------|
D|-----------------------------------------------------------------|
Добавлено: 21.11.2013
Другие материалы по этой песне:
  • Аккорды и текст

Страница создана 21.11.2013
http://primanota.ru/chelsea-wolfe/mer-chords.htm
Привет, Гость.
Предлагаем пройти революционный курс по гитаре.
Подарок от PrimaNota.Ru, забирай!