PrimaNota.ru - самый крупный в мире бесплатный архив песенных текстов, аккордов, табулатур и нот


Chelsea Smiles - Heart Attack - таба, видео

Регистрация Запомнить меня
Войти через:  Facebook Google Twitter Vk Yandex Mail.ru

Chelsea Smiles - Heart Attack - таба, видео

Печатать
Просмотров: 158
Уроки эстрадного вокала в Санкт-Петербурге
There are a few words missing from the lyrics, but I couldn't figure them out... Maybe you can...
Any corrections you got, please hit me back. 
Enjoy the first Chelsea Smiles tab


     G#  C# G#  C# G#   B#       E 
E| - - - - - - - - - - - - - - - - - |
B| - - - - - - - - - - - - - - - - - |
G| - - - 6 - - - 6 - - - - - - - 9 - |
D| - 6 6 6 6 6 6 6 6 6 9 9 9 9 9 9 - |x6
A| - 6 6 4 6 6 6 4 6 6 9 9 9 9 9 7 - |
E| - 4 4 – 4 4 4 – 4 4 7 7 7 7 7 - - |

Yeahh

     G#  C# G#  C# G#   B#       E 
E| - - - - - - - - - - - - - - - - - |
B| - - - - - - - - - - - - - - - - - |
G| - - - - - - - - - - - - - - - - - |
D| - - - 6 - - - 6 - - - - - - - 9 - |x4 (palm muted)
A| - 6 6 4 6 6 6 4 6 6 9 9 9 9 9 7 - |
E| - 4 4 – 4 4 4 – 4 4 7 7 7 7 7 - - |

Like a heart attack
Well……   didn't see you coming
Like a hole in the head
Think you can deal the (drugs)(!!!)     

   F#      E       G#       
E|---------------------------------|
B|---------------------------------|
G|---------------------------------|
D|-4-4-4-4-2-2-2-2-6-6-6-6-6-6-6-6-|
A|-4-4-4-4-2-2-2-2-6-6-6-6-6-6-6-6-|
E|-2-2-2-2-0-0-0-0-4-4-4-4-4-4-4-4-|

  So I'll be taking you apart now,       
                      
   F#      E       D#       
E|---------------------------------|
B|---------------------------------|
G|-----------------8-8-8-8-8-8-8-8-|
D|-4-4-4-4-2-2-2-2-8-8-8-8-8-8-8-8-|
A|-4-4-4-4-2-2-2-2-6-6-6-6-6-6-6-6-|
E|-2-2-2-2-0-0-0-0-----------------|

   Piece by piece, one by one

     G#  C# G#  C# G#   B#       E 
E| - - - - - - - - - - - - - - - - - |
B| - - - - - - - - - - - - - - - - - |
G| - - - 6 - - - 6 - - - - - - - 9 - |
D| - 6 6 6 6 6 6 6 6 6 9 9 9 9 9 9 - |x2
A| - 6 6 4 6 6 6 4 6 6 9 9 9 9 9 7 - |
E| - 4 4 – 4 4 4 – 4 4 7 7 7 7 7 - - |

Yeahh

     G#  C# G#  C# G#   B#       E 
E| - - - - - - - - - - - - - - - - - |
B| - - - - - - - - - - - - - - - - - |
G| - - - - - - - - - - - - - - - - - |
D| - - - 6 - - - 6 - - - - - - - 9 - |x4 (palm muted)
A| - 6 6 4 6 6 6 4 6 6 9 9 9 9 9 7 - |
E| - 4 4 – 4 4 4 – 4 4 7 7 7 7 7 - - |

Get back, doing all your dirty ........, baby
I love this hate from you, when it just began

   F#      E       G#       
E|---------------------------------|
B|---------------------------------|
G|---------------------------------|
D|-4-4-4-4-2-2-2-2-6-6-6-6-6-6-6-6-|
A|-4-4-4-4-2-2-2-2-6-6-6-6-6-6-6-6-|
E|-2-2-2-2-0-0-0-0-4-4-4-4-4-4-4-4-|

   So I'll be taking you apart now,       
                      
   F#      E       D#       
E|---------------------------------|
B|---------------------------------|
G|-----------------8-8-8-8-8-8-8-8-|
D|-4-4-4-4-2-2-2-2-8-8-8-8-8-8-8-8-|
A|-4-4-4-4-2-2-2-2-6-6-6-6-6-6-6-6-|
E|-2-2-2-2-0-0-0-0-----------------|

    Piece by piece, one by one

   A#      F#      C#      G#      A#      F#      C#
E|-------------------------------------------------------------------|
B|-------------------------------------------------------------------|
G|-3-3-3-3---------6-6-6-6---------3-3-3-3---------6-6-6-6-6-6-6-6---|
D|-3-3-3-3-4-4-4-4-6-6-6-6-6-6-6-6-3-3-3-3-4-4-4-4-6-6-6-6-6-6-6-6---|
A|-1-1-1-1-4-4-4-4-4-4-4-4-6-6-6-6-1-1-1-1-4-4-4-4-4-4-4-4-4-4-4-4---|
E|---------2-2-2-2---------4-4-4-4---------2-2-2-2-------------------|

It's a long way back now, little baby.It's a long way for you now

   A#      F#      C#      G#      A#      F#       G#
E|-------------------------------------------------------------------|
B|-------------------------------------------------------------------|
G|-3-3-3-3---------6-6-6-6---------3-3-3-3---------------------------|
D|-3-3-3-3-4-4-4-4-6-6-6-6-6-6-6-6-3-3-3-3-4-4-4-4-6-6-6-6-6-6-6-6---|
A|-1-1-1-1-4-4-4-4-4-4-4-4-6-6-6-6-1-1-1-1-4-4-4-4-6-6-6-6-6-6-6-6---|
E|---------2-2-2-2---------4-4-4-4---------2-2-2-2-4-4-4-4-4-4-4-4---|

It's a long way back now, pretty baby.It's a long way,  It's a long way.

Yeahh

     G#  C# G#  C# G#   B#       E 
E| - - - - - - - - - - - - - - - - - |
B| - - - - - - - - - - - - - - - - - |
G| - - - 6 - - - 6 - - - - - - - 9 - |
D| - 6 6 6 6 6 6 6 6 6 9 9 9 9 9 9 - |x12
A| - 6 6 4 6 6 6 4 6 6 9 9 9 9 9 7 - |
E| - 4 4 – 4 4 4 – 4 4 7 7 7 7 7 - - |

Like a heart attack
Like a heart attack
Like a heart attack

     B#        E   B#        E   B#        E G#
E| - - - - - - - - - - - - - - - - - - - - - - - |
B| - - - - - - - - - - - - - - - - - - - - - - - |
G| - - - - - 9 9 - - - - - - 9 - - - - - - 9 - - |
D| - 9 9 9 9 9 9 - 9 9 9 9 9 9 - 9 9 9 9 9 9 6 - |
A| - 9 9 9 9 9 7 - 9 9 9 9 9 7 - 9 9 9 9 9 7 6 - |
E| - 7 7 7 7 7 - - 7 7 7 7 7 - - 7 7 7 7 7 - 4 - |
Добавлено: 12.06.2012
Вам также может быть интересно:
Другие материалы по этой песне:
  • Аккорды и текст

Страница создана 12.06.2012
http://primanota.ru/chelsea-smiles/heart-attack-chords.htm
Привет, Гость.
Предлагаем пройти революционный курс по гитаре.
Подарок от PrimaNota.Ru, забирай!