PrimaNota.ru - самый крупный в мире бесплатный архив песенных текстов, аккордов, табулатур и нот


Chelsea Grin - Wasteland - таба, видео

Регистрация Запомнить меня
Войти через:  Facebook Google Twitter Vk Yandex Mail.ru

Chelsea Grin - Wasteland - таба, видео

Печатать
Просмотров: 261
       -------------------------------------------------------------------------------
                             WASTELAND - Chelsea Grin
-------------------------------------------------------------------------------
Tabbed by: Chaosvirus
Email: alaincloutier@hotmail.com

Tuning: A,E,A,D,G,B,E


     E  E  Q    E  Q    E     E  Q    E  E  S E  S E   
E||------------------------|--------------------------|
B||------------------------|--------------------------|
G||------------------------|--------------------------|
D||------------------------|--------------------------|
A||--2--2--2----2--2----2--|--L--2----2--2--2-2--2-2--|
E||--1--1--1----1--1----1--|--L--1----1--1--1-1--1-1--|
A||--2--2--2----2--2----2--|--L--2----2--2--2-2--2-2--|


  E  E  Q    E  Q    E     E  Q    E  E  S E  S E   
------------------------|--------------------------|
------------------------|--------------------------|
------------------------|--------------------------|
------------------------|--------------------------|
--2--2--2----2--2----2--|--L--2----2--2--2-2--2-2--|
--1--1--1----1--1----1--|--L--1----1--1--1-1--1-1--|
--2--2--2----2--2----2--|--L--2----2--2--2-2--2-2--|


  E  E  Q    E  Q    E     E  Q    E  E  S E  S E   
------------------------|--------------------------|
------------------------|--------------------------|
------------------------|--------------------------|
------------------------|--------------------------|
------------------------|--------------------------|
--0--0--0----0--0----0--|--L--0----0--0--0-0--0-0--|
--0--0--0----0--0----0--|--L--0----0--0--0-0--0-0--|


  E  E  Q    E  Q    E     E  Q    E  E  S E  S E   
------------------------|--------------------------|
------------------------|--------------------------|
------------------------|--------------------------|
------------------------|--------------------------|
------------------------|--------------------------|
--0--0--0----0--0----0--|--L--0----0--0--0-0--0-0--|
--0--0--0----0--0----0--|--L--0----0--0--0-0--0-0--|


  E  E  Q    E  Q    E     E  Q    E  E  S E  S E   
------------------------|--------------------------|
------------------------|--------------------------|
------------------------|--------------------------|
------------------------|--------------------------|
--2--2--2----2--2----2--|--L--2----2--2--2-2--2-2--|
--1--1--1----1--1----1--|--L--1----1--1--1-1--1-1--|
--2--2--2----2--2----2--|--L--2----2--2--2-2--2-2--|


  E  E  Q    E  Q    E     E  Q    E  E  S E  S E   
------------------------|--------------------------|
------------------------|--------------------------|
------------------------|--------------------------|
------------------------|--------------------------|
--2--2--2----2--2----2--|--L--2----2--2--2-2--2-2--|
--1--1--1----1--1----1--|--L--1----1--1--1-1--1-1--|
--2--2--2----2--2----2--|--L--2----2--2--2-2--2-2--|


  E  E  Q    E  Q    E     E  Q    E  E  S E  S E   
------------------------|--------------------------|
------------------------|--------------------------|
------------------------|--------------------------|
------------------------|--------------------------|
------------------------|--------------------------|
--0--0--0----0--0----0--|--L--0----0--0--0-0--0-0--|
--0--0--0----0--0----0--|--L--0----0--0--0-0--0-0--|


  E  E  Q    E  Q    E     E  Q    E  E  S E  S E     W                 
------------------------|--------------------------|-------------------|
------------------------|--------------------------|-------------------|
------------------------|--------------------------|-------------------|
------------------------|--------------------------|-------------------|
------------------------|--------------------------|-------------------|
--0--0--0----0--0----0--|--L--0----0--0--0-0--0-0--|--L----------------|
--0--0--0----0--0----0--|--L--0----0--0--0-0--0-0--|--L----------------|


  W                   W                   W                 
-------------------|-------------------|-------------------|
-------------------|-------------------|-------------------|
-------------------|-------------------|-------------------|
-------------------|-------------------|-------------------|
-------------------|-------------------|-------------------|
--L----------------|--L----------------|--L----------------|
--L----------------|--L----------------|--L----------------|


              PM PM          PM PM    PM PM       PM PM    PM PM  
  H        E  E  E  E     E  E  E  E  E  E     E  E  E  E  E  E   
-----------------------|--------------------|--------------------|
-----------------------|--------------------|--------------------|
-----------------------|--------------------|--------------------|
-----------3-----------|--3--------6--------|--3--------6--------|
-----------1--1--------|--1--1-----4--1-----|--1--1-----4--1-----|
--L--------1--0--0-----|--1--0--0--4--0--0--|--1--0--0--4--0--0--|
--L-----------1--0-----|-----1--0-----1--0--|-----1--0-----1--0--|


     PM PM    PM    PM PM       PM PM    PM PM       PM PM    PM PM  
  E  E  E  E  E  E  E  E     E  E  E  E  E  E     E  E  E  E  E  E   
--------------------------|--------------------|--------------------|
--------------------------|--------------------|--------------------|
--------------------------|--------------------|--------------------|
--3--------3-----3--------|--3--------6--------|--3--------6--------|
--1--1-----1-----1--1-----|--1--1-----4--1-----|--1--1-----4--1-----|
--1--0--0--1--0--1--0--0--|--1--0--0--4--0--0--|--1--0--0--4--0--0--|
-----1--0-----0-----1--0--|-----1--0-----1--0--|-----1--0-----1--0--|


     PM PM    PM    PM PM       PM PM    PM PM       PM PM    PM PM  
  E  E  E  E  E  E  E  E     E  E  E  E  E  E     E  E  E  E  E  E   
--------------------------|--------------------|--------------------|
--------------------------|--------------------|--------------------|
--------------------------|--------------------|--------------------|
--3--------3-----3--------|--3--------6--------|--3--------6--------|
--1--1-----1-----1--1-----|--1--1-----4--1-----|--1--1-----4--1-----|
--1--0--0--1--0--1--0--0--|--1--0--0--4--0--0--|--1--0--0--4--0--0--|
-----1--0-----0-----1--0--|-----1--0-----1--0--|-----1--0-----1--0--|


     PM PM    PM    PM PM       PM PM    PM PM       PM PM    PM PM  
  E  E  E  E  E  E  E  E     E  E  E  E  E  E     E  E  E  E  E  E   
--------------------------|--------------------|--------------------|
--------------------------|--------------------|--------------------|
--------------------------|--------------------|--------------------|
--3--------3-----3--------|--3--------6--------|--3--------6--------|
--1--1-----1-----1--1-----|--1--1-----4--1-----|--1--1-----4--1-----|
--1--0--0--1--0--1--0--0--|--1--0--0--4--0--0--|--1--0--0--4--0--0--|
-----1--0-----0-----1--0--|-----1--0-----1--0--|-----1--0-----1--0--|


     PM PM    PM    PM PM       PM PM    PM PM       PM PM    PM PM  
  E  E  E  E  E  E  E  E     E  E  E  E  E  E     E  E  E  E  E  E   
--------------------------|--------------------|--------------------|
--------------------------|--------------------|--------------------|
--------------------------|--------------------|--------------------|
--3--------3-----3--------|--3--------6--------|--3--------6--------|
--1--1-----1-----1--1-----|--1--1-----4--1-----|--1--1-----4--1-----|
--1--0--0--1--0--1--0--0--|--1--0--0--4--0--0--|--1--0--0--4--0--0--|
-----1--0-----0-----1--0--|-----1--0-----1--0--|-----1--0-----1--0--|


     PM PM    PM    PM PM       PM PM    PM PM       PM PM    PM PM  
  E  E  E  E  E  E  E  E     E  E  E  E  E  E     E  E  E  E  E  E   
--------------------------|--------------------|--------------------|
--------------------------|--------------------|--------------------|
--------------------------|--------------------|--------------------|
--3--------3-----3--------|--3--------6--------|--3--------6--------|
--1--1-----1-----1--1-----|--1--1-----4--1-----|--1--1-----4--1-----|
--1--0--0--1--0--1--0--0--|--1--0--0--4--0--0--|--1--0--0--4--0--0--|
-----1--0-----0-----1--0--|-----1--0-----1--0--|-----1--0-----1--0--|


     PM PM    PM    PM PM       PM PM    PM PM       PM PM    PM PM  
  E  E  E  E  E  E  E  E     E  E  E  E  E  E     E  E  E  E  E  E   
--------------------------|--------------------|--------------------|
--------------------------|--------------------|--------------------|
--------------------------|--------------------|--------------------|
--3--------3-----3--------|--3--------6--------|--3--------6--------|
--1--1-----1-----1--1-----|--1--1-----4--1-----|--1--1-----4--1-----|
--1--0--0--1--0--1--0--0--|--1--0--0--4--0--0--|--1--0--0--4--0--0--|
-----1--0-----0-----1--0--|-----1--0-----1--0--|-----1--0-----1--0--|


     PM PM    PM    PM PM       PM PM    PM PM       PM PM    PM PM  
  E  E  E  E  E  E  E  E     E  E  E  E  E  E     E  E  E  E  E  E   
--------------------------|--------------------|--------------------|
--------------------------|--------------------|--------------------|
--------------------------|--------------------|--------------------|
--3--------3-----3--------|--3--------6--------|--3--------6--------|
--1--1-----1-----1--1-----|--1--1-----4--1-----|--1--1-----4--1-----|
--1--0--0--1--0--1--0--0--|--1--0--0--4--0--0--|--1--0--0--4--0--0--|
-----1--0-----0-----1--0--|-----1--0-----1--0--|-----1--0-----1--0--|


     PM PM    PM    PM PM       PM PM    PM PM       PM PM    PM PM  
  E  E  E  E  E  E  E  E     E  E  E  E  E  E     E  E  E  E  E  E   
--------------------------|--------------------|--------------------|
--------------------------|--------------------|--------------------|
--------------------------|--------------------|--------------------|
--3--------3-----3--------|--3--------6--------|--3--------6--------|
--1--1-----1-----1--1-----|--1--1-----4--1-----|--1--1-----4--1-----|
--1--0--0--1--0--1--0--0--|--1--0--0--4--0--0--|--1--0--0--4--0--0--|
-----1--0-----0-----1--0--|-----1--0-----1--0--|-----1--0-----1--0--|


     PM PM    PM    PM PM       PM PM    PM PM       PM PM    PM PM  
  E  E  E  E  E  E  E  E     E  E  E  E  E  E     E  E  E  E  E  E   
--------------------------|--------------------|--------------------|
--------------------------|--------------------|--------------------|
--------------------------|--------------------|--------------------|
--3--------3-----3--------|--3--------6--------|--3--------6--------|
--1--1-----1-----1--1-----|--1--1-----4--1-----|--1--1-----4--1-----|
--1--0--0--1--0--1--0--0--|--1--0--0--4--0--0--|--1--0--0--4--0--0--|
-----1--0-----0-----1--0--|-----1--0-----1--0--|-----1--0-----1--0--|


     PM PM    PM    PM PM       PM PM    PM PM       PM PM    PM PM  
  E  E  E  E  E  E  E  E     E  E  E  E  E  E     E  E  E  E  E  E   
--------------------------|--------------------|--------------------|
--------------------------|--------------------|--------------------|
--------------------------|--------------------|--------------------|
--3--------3-----3--------|--3--------6--------|--3--------6--------|
--1--1-----1-----1--1-----|--1--1-----4--1-----|--1--1-----4--1-----|
--1--0--0--1--0--1--0--0--|--1--0--0--4--0--0--|--1--0--0--4--0--0--|
-----1--0-----0-----1--0--|-----1--0-----1--0--|-----1--0-----1--0--|


     PM PM    PM    PM PM       PM PM    PM PM       PM PM    PM PM  
  E  E  E  E  E  E  E  E     E  E  E  E  E  E     E  E  E  E  E  E   
--------------------------|--------------------|--------------------|
--------------------------|--------------------|--------------------|
--------------------------|--------------------|--------------------|
--3--------3-----3--------|--3--------6--------|--3--------6--------|
--1--1-----1-----1--1-----|--1--1-----4--1-----|--1--1-----4--1-----|
--1--0--0--1--0--1--0--0--|--1--0--0--4--0--0--|--1--0--0--4--0--0--|
-----1--0-----0-----1--0--|-----1--0-----1--0--|-----1--0-----1--0--|


     PM PM    PM    PM PM       PM PM    PM PM       PM PM    PM PM  
  E  E  E  E  E  E  E  E     E  E  E  E  E  E     E  E  E  E  E  E   
--------------------------|--------------------|--------------------|
--------------------------|--------------------|--------------------|
--------------------------|--------------------|--------------------|
--3--------3-----3--------|--3--------6--------|--3--------6--------|
--1--1-----1-----1--1-----|--1--1-----4--1-----|--1--1-----4--1-----|
--1--0--0--1--0--1--0--0--|--1--0--0--4--0--0--|--1--0--0--4--0--0--|
-----1--0-----0-----1--0--|-----1--0-----1--0--|-----1--0-----1--0--|


     PM PM    PM    PM PM       PM PM    PM PM       PM PM    PM PM  
  E  E  E  E  E  E  E  E     E  E  E  E  E  E     E  E  E  E  E  E   
--------------------------|--------------------|--------------------|
--------------------------|--------------------|--------------------|
--------------------------|--------------------|--------------------|
--3--------3-----3--------|--3--------6--------|--3--------6--------|
--1--1-----1-----1--1-----|--1--1-----4--1-----|--1--1-----4--1-----|
--1--0--0--1--0--1--0--0--|--1--0--0--4--0--0--|--1--0--0--4--0--0--|
-----1--0-----0-----1--0--|-----1--0-----1--0--|-----1--0-----1--0--|


     PM PM    PM    PM PM                           
  E  E  E  E  E  E  E  E     E  E  Q    E  Q    E   
--------------------------|------------------------|
--------------------------|------------------------|
--------------------------|------------------------|
--3--------3-----3--------|------------------------|
--1--1-----1-----1--1-----|--2--2--2----2--2----2--|
--1--0--0--1--0--1--0--0--|--1--1--1----1--1----1--|
-----1--0-----0-----1--0--|--2--2--2----2--2----2--|


  E  Q    E  E  S E  S E     E  E  Q    E  Q    E   
--------------------------|------------------------|
--------------------------|------------------------|
--------------------------|------------------------|
--------------------------|------------------------|
--L--2----2--2--2-2--2-2--|--2--2--2----2--2----2--|
--L--1----1--1--1-1--1-1--|--1--1--1----1--1----1--|
--L--2----2--2--2-2--2-2--|--2--2--2----2--2----2--|


  E  Q    E  E  S E  S E     E  E  Q    E  Q    E   
--------------------------|------------------------|
--------------------------|------------------------|
--------------------------|------------------------|
--------------------------|------------------------|
--L--2----2--2--2-2--2-2--|------------------------|
--L--1----1--1--1-1--1-1--|--0--0--0----0--0----0--|
--L--2----2--2--2-2--2-2--|--0--0--0----0--0----0--|


  E  Q    E  E  S E  S E     E  E  Q    E  Q    E   
--------------------------|------------------------|
--------------------------|------------------------|
--------------------------|------------------------|
--------------------------|------------------------|
--------------------------|------------------------|
--L--0----0--0--0-0--0-0--|--0--0--0----0--0----0--|
--L--0----0--0--0-0--0-0--|--0--0--0----0--0----0--|


  E  Q    E  E  S E  S E     E  E  Q    E  Q    E   
--------------------------|------------------------|
--------------------------|------------------------|
--------------------------|------------------------|
--------------------------|------------------------|
--------------------------|--2--2--2----2--2----2--|
--L--0----0--0--0-0--0-0--|--1--1--1----1--1----1--|
--L--0----0--0--0-0--0-0--|--2--2--2----2--2----2--|


  E  Q    E  E  S E  S E     E  E  Q    E  Q    E   
--------------------------|------------------------|
--------------------------|------------------------|
--------------------------|------------------------|
--------------------------|------------------------|
--L--2----2--2--2-2--2-2--|--2--2--2----2--2----2--|
--L--1----1--1--1-1--1-1--|--1--1--1----1--1----1--|
--L--2----2--2--2-2--2-2--|--2--2--2----2--2----2--|


  E  Q    E  E  S E  S E     E  E  Q    E  Q    E   
--------------------------|------------------------|
--------------------------|------------------------|
--------------------------|------------------------|
--------------------------|------------------------|
--L--2----2--2--2-2--2-2--|------------------------|
--L--1----1--1--1-1--1-1--|--0--0--0----0--0----0--|
--L--2----2--2--2-2--2-2--|--0--0--0----0--0----0--|


  E  Q    E  E  S E  S E     E  E  Q    E  Q    E   
--------------------------|------------------------|
--------------------------|------------------------|
--------------------------|------------------------|
--------------------------|------------------------|
--------------------------|------------------------|
--L--0----0--0--0-0--0-0--|--0--0--0----0--0----0--|
--L--0----0--0--0-0--0-0--|--0--0--0----0--0----0--|


  E  Q    E  E  S E  S E     E  E  H.             
--------------------------|---------------------||
--------------------------|---------------------||
--------------------------|---------------------||
--------------------------|---------------------||
--------------------------|---------------------||
--L--0----0--0--0-0--0-0--|--0------------------||
--L--0----0--0--0-0--0-0--|--0------------------||

END


Tablature Legend
---------------
PM - Palm mute
L - Let Ring
---------------
W - whole
H - half
Q - quarter
E - 8th
S - 16th
T - 32nd
X - 64th
. - note dotted
----------------
Добавлено: 10.06.2012
Другие материалы по этой песне:

Страница создана 02.05.2012
http://primanota.ru/chelsea-grin/wasteland-chords.htm
Привет, Гость.
Предлагаем пройти революционный курс по гитаре.
Подарок от PrimaNota.Ru, забирай!