PrimaNota.ru - самый крупный в мире бесплатный архив песенных текстов, аккордов, табулатур и нот


Chelsea Grin - The Second Coming - текст песни, таба, видео

Регистрация Запомнить меня
Войти через:  Facebook Google Twitter Vk Yandex Mail.ru

Chelsea Grin - The Second Coming - текст песни, таба, видео

Печатать
Просмотров: 224
http://www.youtube.com/watch?v=etuTIzpqEqA - Click the link and skip to 2:38
to see how I play the solo, this should help you match the tab up with
different parts of the solo if you are struggling.


D|----14-10--10------10----14-10--------13-9--9------9-13-9-14-18-14-19-23-|
A|---------12--12------12-------12----------11-11--------------------------|
F|--11-----------11------11-------11--10---------10------------------------|
C|-----------------12---------------12-------------11----------------------|
G|-------------------------------------------------------------------------|
C|-------------------------------------------------------------------------|

Now this, bit is slightly different in the cover, but that shouldn't be a problem.
In the cover I played this part lower down, as it wouldn't record properly, but this
is the way it should be played.

D|----24-20--20------20----24-20--------23-19--19------15-19-15--------15-19-|
A|---------22--22------22-------22-----------21--21------------14-18-14------|
F|--21-----------21------21-------21--20-----------20------------------------|
C|-----------------22---------------22---------------21----------------------|
G|---------------------------------------------------------------------------|
C|---------------------------------------------------------------------------|

D|---14-10--10------10----14-10--------14-10--10------10-----------------|
A|--------12--12------12-------12-----------12--12------12---------14-17-|
F|-11-----------11------11-------11--11-----------11------11--12-15------|
C|----------------12---------------12---------------12------12-----------|
G|-----------------------------------------------------------------------|
C|-----------------------------------------------------------------------|

D|-----13h17p13h17t18p17p13----13t18p17p13t20p17p13----13t22p17p13-|
A|---15-----------------------15---------------------15------------|
F|-14-----------------------14---------------------14--------------|
C|-----------------------------------------------------------------|
G|-----------------------------------------------------------------|
C|-----------------------------------------------------------------|


D|---17-13--13--------------13h17t20p17p13-------------------------|
A|--------15--15----------15--------------15-----------------------|
F|-14-----------14------14------------------14---------------------|
C|----------------15--15----------------------15-------------------|
G|------------------17--------------------------17~~~~~~~~~~~~~~~~-|
C|-----------------------------------------------------------------|
                    -----------------------------------------------|
                    This part is played faster

---------

t= tap
h= hammer on
p= pull off
~= hold note
Добавлено: 21.09.2013
Другие материалы по этой песне:

Страница создана 21.09.2013
http://primanota.ru/chelsea-grin/the-second-coming-chords.htm
Привет, Гость.
Предлагаем пройти революционный курс по гитаре.
Подарок от PrimaNota.Ru, забирай!