PrimaNota.ru - самый крупный в мире бесплатный архив песенных текстов, аккордов, табулатур и нот


Chelsea Grin - Lifeless - текст песни, таба, видео

Регистрация Запомнить меня
Войти через:  Facebook Google Twitter Vk Yandex Mail.ru

Chelsea Grin - Lifeless - текст песни, таба, видео

Печатать
Просмотров: 263
-------------------------------------------------------------------------------
                             Lifeless by Chelsea Grin
-------------------------------------------------------------------------------
Tabbed by:Darian Mazloomi
Email:aworldwheretruthisfrail@hotmail.com

Tuning: DROP A

0:00-0:29

B|-----------------|-----------------|----------------------------------------|
F#-----------------|-----------------|----------------------------------------|
D|-----------------|-----------------|----------------------------------------|
A|-33333-3-33-3-33-|-22222-2-22-2-22-|-33333-3-33-33--------------------------|
E|-22222-2-22-2-22-|-11111-1-11-1-11-|-22222-2-22-22--------------------------|
A|-33333-3-33-3-33-|-22222-2-22-2-22-|-33333-3-33-33--------------------------|

0:29-0:46; 1:34-1:51

B|-------------------|----------|--------------------------------------------|
F#-------------------|----------|--------------------------------------------|
D|--------7--------7-|----------|--------------------------------------------|
A|-0000-0-6-0000-0-6-|-7-----11-|-7------------------------------------------|
E|-0000-0-5-0000-0-5-|--8-10----|--8-10-4------------------------------------|
A|-0000-0---0000-0---|----------|--------------------------------------------|
                         tremolo picking
0:46-1:06

B|---------------------------------------------------------------------------|
F#---------------------------------------------------------------------------|
E|---------------------------------------------------------------------------|
A|-1-0-3-0-4-3-1----1-0-3-0-4-3-1--------------------------------------------|
E|-1-0-3-0-4-3-1----1-0-3-0-4-3-1-4*-----------------------------------------|
A|-1-0-3-0-4-3-1-3*-1-0-3-0-4-3-1--------------------------------------------|

1:06-1:34

B|-----------------------------------------------------------------------------|
F#-----------------------------------------------------------------------------|
D|-7-6-7-9-6-------------------------------------------------------------------|
A|-----------------------------------------------------------------------------|
E|-5-4-5-7-4---9h12-9h12---9h12-9h12---0h9h12--7h10-7h10---7h10-7h10---0h7h10--|
A|-----------00----------00----------00------00----------00----------00--------|

B|--------------------------------------------------------------------------------|
F#--------------------------------------------------------------------------------|
D|--------------------------------------------------------------------------------|
A|------------------------------------------------------------------12-11-12-14-11|
E|---9h12-9h12--10h13-10h13--0h10h13--7h10-7h10--7h10-7h10---0h7h10---------------|
A|-00---------00-----------00-------00---------00----------00-------10-9--10-12-9-|

B|------------------------------------------------------------------------------|
F#------------------------------------------------------------------------------|
D|------------------------------------------------------------------------------|
A|---9h12-9h12--9h12-9h12--09h12--7h10-7h10--7h10-7h10--0h7h10--9h12-9h12-------|
E|------------------------------------------------------------------------------|
A|-00---------00---------00-----00---------00---------00------00----------------|

B|-----------------------------------------------------------------------------|
F#-----------------------------------------------------------------------------|
D|-----------------------------------------------------------------------------|
A|---10h13-10h13--0h10h13--7h10-7h10--7h10-7h10--0h7h10------------------------|
E|-----------------------------------------------------------------------------|
A|-00-----------00-------00---------00---------00------------------------------|

1:53-2:20

B|-----------|-----------|-----------------------------------------------------|
F#-----------|-----------|-----------------------------------------------------|
D|-----------|-----------|-----------------------------------------------------|
A|-0-0-000-0-|-0-0-000-0-|-0-0-000-0-0-0---------------------------------------|
E|-0-0-000-0-|-0-0-000-0-|-0-0-000-0-0-0---------------------------------------|
A|-1-1-111-1-|-0-0-000-0-|-1-1-111-1-1-0---------------------------------------|

| /  slide up
| \  slide down
| h  hammer-on
| p  pull-off
| ~  vibrato
| +  harmonic
| x  Mute note
|* pinch
====================================
Добавлено: 13.07.2012
Другие материалы по этой песне:

Страница создана 13.07.2012
http://primanota.ru/chelsea-grin/lifeless-chords.htm
Привет, Гость.
Предлагаем пройти революционный курс по гитаре.
Подарок от PrimaNota.Ru, забирай!