PrimaNota.ru - самый крупный в мире бесплатный архив песенных текстов, аккордов, табулатур и нот


Chelsea Grin - Judgment - таба, видео

Регистрация Запомнить меня
Войти через:  Facebook Google Twitter Vk Yandex Mail.ru

Chelsea Grin - Judgment - таба, видео

Печатать
Просмотров: 198
-------------------------------------------------------------------------------
                                                     JUDGMENT - Chelsea Grin
-------------------------------------------------------------------------------
Tabbed by: Chaosvirus
Email: alaincloutier@hotmail.com

Tuning: A,E,A,D,G,B,E

Both Guitar
     PM PM PM PM PM PM PM PM PM PM PM PM  
     S  S  S  E  S  E  S  S  S  E  S  E   
E||--------------------------------------|
B||--------------------------------------|
G||--------------------------------------|
D||--------------------------------------|
A||--------------------------------------|
E||--0--0--0--0--0--0--0--0--0--0--0--0--|
A||--0--0--0--0--0--0--0--0--0--0--0--0--|


  PM PM PM PM PM PM PM PM PM PM PM PM  
  S  S  S  E  S  E  S  S  S  E  S  E   
--------------------------------------|
--------------------------------------|
--------------------------------------|
--------------------------------------|
--------------------------------------|
--0--0--0--0--0--0--0--0--0--0--0--0--|
--0--0--0--0--0--0--0--0--0--0--0--0--|


  PM PM PM PM PM PM PM PM PM PM PM PM    PM PM PM PM PM PM              
  S  S  S  E  S  E  S  S  S  E  S  E     S  S  S  E  S  E  E  E  E  E   
--------------------------------------|--------------------------------|
--------------------------------------|--------------------------------|
--------------------------------------|--------------------------------|
--------------------------------------|--------------------------------|
--------------------------------------|--------------------------------|
--0--0--0--0--0--0--0--0--0--0--0--0--|--0--0--0--0--0--0--------------|
--0--0--0--0--0--0--0--0--0--0--0--0--|--0--0--0--0--0--0--0--0--0--0--|


  PM PM PM PM PM PM PM PM PM PM PM PM  
  S  S  S  E  S  E  S  S  S  E  S  E   
--------------------------------------|
--------------------------------------|
--------------------------------------|
--------------------------------------|
--------------------------------------|
--0--0--0--0--0--0--0--0--0--0--0--0--|
--0--0--0--0--0--0--0--0--0--0--0--0--|


  PM PM PM PM PM PM PM PM PM PM PM PM  
  S  S  S  E  S  E  S  S  S  E  S  E   
--------------------------------------|
--------------------------------------|
--------------------------------------|
--------------------------------------|
--------------------------------------|
--0--0--0--0--0--0--0--0--0--0--0--0--|
--0--0--0--0--0--0--0--0--0--0--0--0--|


  PM PM PM PM PM PM PM PM PM PM PM PM    PM PM PM PM PM PM              
  S  S  S  E  S  E  S  S  S  E  S  E     S  S  S  E  S  E  E  E  E  E   
--------------------------------------|--------------------------------|
--------------------------------------|--------------------------------|
--------------------------------------|--------------------------------|
--------------------------------------|--------------------------------|
--------------------------------------|--------------------------------|
--0--0--0--0--0--0--0--0--0--0--0--0--|--0--0--0--0--0--0--------------|
--0--0--0--0--0--0--0--0--0--0--0--0--|--0--0--0--0--0--0--0--0--0--0--|


  PM PM PM PM PM PM PM PM PM PM PM PM  
  S  S  S  E  S  E  S  S  S  E  S  E   
--------------------------------------|
--------------------------------------|
--------------------------------------|
--------------------------------------|
--------------------------------------|
--0--0--0--0--0--0--0--0--0--0--0--0--|
--0--0--0--0--0--0--0--0--0--0--0--0--|


  PM PM PM PM PM PM PM PM PM PM PM PM  
  S  S  S  E  S  E  S  S  S  E  S  E   
--------------------------------------|
--------------------------------------|
--------------------------------------|
--------------------------------------|
--------------------------------------|
--0--0--0--0--0--0--0--0--0--0--0--0--|
--0--0--0--0--0--0--0--0--0--0--0--0--|


  PM PM PM PM PM PM PM PM PM PM PM PM    PM PM PM PM PM PM              
  S  S  S  E  S  E  S  S  S  E  S  E     S  S  S  E  S  E  E  E  E  E   
--------------------------------------|--------------------------------|
--------------------------------------|--------------------------------|
--------------------------------------|--------------------------------|
--------------------------------------|--------------------------------|
--------------------------------------|--------------------------------|
--0--0--0--0--0--0--0--0--0--0--0--0--|--0--0--0--0--0--0--------------|
--0--0--0--0--0--0--0--0--0--0--0--0--|--0--0--0--0--0--0--0--0--0--0--|


  PM PM PM PM PM PM PM PM PM PM PM PM  
  S  S  S  E  S  E  S  S  S  E  S  E   
--------------------------------------|
--------------------------------------|
--------------------------------------|
--------------------------------------|
--------------------------------------|
--0--0--0--0--0--0--0--0--0--0--0--0--|
--0--0--0--0--0--0--0--0--0--0--0--0--|


  PM PM PM PM PM PM PM PM PM PM PM PM  
  S  S  S  E  S  E  S  S  S  E  S  E   
--------------------------------------|
--------------------------------------|
--------------------------------------|
--------------------------------------|
--------------------------------------|
--0--0--0--0--0--0--0--0--0--0--0--0--|
--0--0--0--0--0--0--0--0--0--0--0--0--|


  PM PM PM PM PM PM PM PM PM PM PM PM    PM PM PM PM PM PM              
  S  S  S  E  S  E  S  S  S  E  S  E     S  S  S  E  S  E  E  E  E  E   
--------------------------------------|--------------------------------|
--------------------------------------|--------------------------------|
--------------------------------------|--------------------------------|
--------------------------------------|--------------------------------|
--------------------------------------|--------------------------------|
--0--0--0--0--0--0--0--0--0--0--0--0--|--0--0--0--0--0--0--------------|
--0--0--0--0--0--0--0--0--0--0--0--0--|--0--0--0--0--0--0--0--0--0--0--|

(LEAD PART + RYTHM)

LEAD
   S   S   S  S   Q.     Q     E       E   E   E   E   E   E   E   E   
-----------------------------------|----------------------------------|
-----------------------------------|----------------------------------|
--12h-13p-12-10h-12------L----12s--|---L--17--17--16--16--13--13--12--|
-----------------------------------|----------------------------------|
-----------------------------------|----------------------------------|
-----------------------------------|----------------------------------|
-----------------------------------|----------------------------------|


   S   S   S  S   E   E   Q.      E     E   Q     S   S   E   E   Q     
-------------------------------------|---------------------------------|
-------------------------------------|---------------------------------|
--12h-13p-12-10h-12------------------|---------------------------------|
---------------------14--15------11--|--L--14----11p-10h-11--10--------|
-------------------------------------|---------------------------13----|
-------------------------------------|---------------------------------|
-------------------------------------|---------------------------------|


   S   S   S  S   Q.     Q     E       E   E   E   E   E   E   E   E   
-----------------------------------|----------------------------------|
-----------------------------------|----------------------------------|
--12h-13p-12-10h-12------L----12s--|---L--17--17--16--16--13--13--12--|
-----------------------------------|----------------------------------|
-----------------------------------|----------------------------------|
-----------------------------------|----------------------------------|
-----------------------------------|----------------------------------|


   S   S   S  S   E   E   Q.      E     E   Q     S   S   E   E   Q     
-------------------------------------|---------------------------------|
-------------------------------------|---------------------------------|
--12h-13p-12-10h-12------------------|---------------------------------|
---------------------14--15------11--|--L--14----11p-10h-11--10--------|
-------------------------------------|---------------------------13----|
-------------------------------------|---------------------------------|
-------------------------------------|---------------------------------|


   S   S   S  S   Q.     Q     E       E   E   E   E   E   E   E   E   
-----------------------------------|----------------------------------|
-----------------------------------|----------------------------------|
--12h-13p-12-10h-12------L----12s--|---L--17--17--16--16--13--13--12--|
-----------------------------------|----------------------------------|
-----------------------------------|----------------------------------|
-----------------------------------|----------------------------------|
-----------------------------------|----------------------------------|


   S   S   S  S   E   E   Q.      E     E   Q     S   S   E   E   Q     
-------------------------------------|---------------------------------|
-------------------------------------|---------------------------------|
--12h-13p-12-10h-12------------------|---------------------------------|
---------------------14--15------11--|--L--14----11p-10h-11--10--------|
-------------------------------------|---------------------------13----|
-------------------------------------|---------------------------------|
-------------------------------------|---------------------------------|


   S   S   S  S   Q.     Q     E       E   E   E   E   E   E   E   E   
-----------------------------------|----------------------------------|
-----------------------------------|----------------------------------|
--12h-13p-12-10h-12------L----12s--|---L--17--17--16--16--13--13--12--|
-----------------------------------|----------------------------------|
-----------------------------------|----------------------------------|
-----------------------------------|----------------------------------|
-----------------------------------|----------------------------------|


   S   S   S  S   E   E   Q.      E     E   Q     S   S   E   E   Q     
-------------------------------------|---------------------------------|
-------------------------------------|---------------------------------|
--12h-13p-12-10h-12------------------|---------------------------------|
---------------------14--15------11--|--L--14----11p-10h-11--10--------|
-------------------------------------|---------------------------13----|
-------------------------------------|---------------------------------|
-------------------------------------|---------------------------------|


   S   S   S  S   E   Q.     Q       W                 
----------------------------------|-------------------|
----------------------------------|-------------------|
--12h-13p-12-10h-12~--L------L----|--L----------------|
----------------------------------|-------------------|
----------------------------------|-------------------|
----------------------------------|-------------------|
----------------------------------|-------------------|


  W                  
-------------------||
-------------------||
--L----------------||
-------------------||
-------------------||
-------------------||
-------------------||


RYTHM
  S E  S S E  S Q    E  E     E  E  E  E  S E  S S S E   
---------------------------|----------------------------|
---------------------------|----------------------------|
---------------------------|----------------------------|
---------------------------|----------------------------|
---------------------------|----------------------------|
---------------------------|----------------------------|
--0-0----0-0------------0--|-----0-----0--0-0----0-0-0--|


  S E  S S E  S Q    E  E     E  E  E  E  S E  S S S E   
---------------------------|----------------------------|
---------------------------|----------------------------|
---------------------------|----------------------------|
---------------------------|----------------------------|
---------------------------|----------------------------|
---------------------------|----------------------------|
--0-0----0-0------------0--|-----0-----0--0-0----0-0-0--|


  S E  S S E  S Q    E  E     E  E  E  E  S E  S S S E   
---------------------------|----------------------------|
---------------------------|----------------------------|
---------------------------|----------------------------|
---------------------------|----------------------------|
---------------------------|----------------------------|
---------------------------|----------------------------|
--0-0----0-0------------0--|-----0-----0--0-0----0-0-0--|


  S E  S S E  S Q    E  E     E  E  E  E  S E  S S S E   
---------------------------|----------------------------|
---------------------------|----------------------------|
---------------------------|----------------------------|
---------------------------|----------------------------|
---------------------------|----------------------------|
---------------------------|----------------------------|
--0-0----0-0------------0--|-----0-----0--0-0----0-0-0--|


  S E  S S E  S Q    E  E     E  E  E  E  S E  S S S E   
---------------------------|----------------------------|
---------------------------|----------------------------|
---------------------------|----------------------------|
---------------------------|----------------------------|
---------------------------|----------------------------|
---------------------------|----------------------------|
--0-0----0-0------------0--|-----0-----0--0-0----0-0-0--|


  S E  S S E  S Q    E  E     E  E  E  E  S E  S S S E   
---------------------------|----------------------------|
---------------------------|----------------------------|
---------------------------|----------------------------|
---------------------------|----------------------------|
---------------------------|----------------------------|
---------------------------|----------------------------|
--0-0----0-0------------0--|-----0-----0--0-0----0-0-0--|


  S E  S S E  S Q    E  E     E  E  E  E  S E  S S S E   
---------------------------|----------------------------|
---------------------------|----------------------------|
---------------------------|----------------------------|
---------------------------|----------------------------|
---------------------------|----------------------------|
---------------------------|----------------------------|
--0-0----0-0------------0--|-----0-----0--0-0----0-0-0--|


  S E  S S E  S Q    E  E     E  E  E  E  S E  S S S E   
---------------------------|----------------------------|
---------------------------|----------------------------|
---------------------------|----------------------------|
---------------------------|----------------------------|
---------------------------|----------------------------|
---------------------------|----------------------------|
--0-0----0-0------------0--|-----0-----0--0-0----0-0-0--|


  W                   W                   W                  
-------------------|-------------------|-------------------||
-------------------|-------------------|-------------------||
-------------------|-------------------|-------------------||
-------------------|-------------------|-------------------||
-------------------|-------------------|-------------------||
--0----------------|--L----------------|--L----------------||
--0----------------|--L----------------|--L----------------||

END


Tablature Legend
---------------
PM - palm mute
L - tied note
h - hammer on
p - pull off
s - legato slide
~ - vibrato
---------------
W - whole
H - half
Q - quarter
E - 8th
S - 16th
T - 32nd
X - 64th
. - note dotted
---------------
Добавлено: 15.07.2012
Другие материалы по этой песне:

Страница создана 14.07.2012
http://primanota.ru/chelsea-grin/judgment-chords.htm
Привет, Гость.
Предлагаем пройти революционный курс по гитаре.
Подарок от PrimaNota.Ru, забирай!